» » »

Procol Harum - A Whiter Shade Of Pale Bass

Artists:  A B C D E F G H I J K L M N O P Q R S T U V W X Y Z # 

A Whiter Shade Of Pale Bass

(ver. 2) Click to play this song!
Procol Harum
 Rating:
4/5 (4 votes)

 A Whiter Shade Of Pale lessons Tabs too difficult? Try these video lessons and learn fast
 
                A Whiter Shade of Pale
Written by Keith Reid & Gary Brooker
Original Artists Procol Harum released the song in 1967
Reaching number 1 in UK, Australia, Netherlands & number 5 in USA
Original bassist David Knights

Intro:
G|-------------------------------------------------------------------------|
D|-------------------------3---3-2---2-0---0---2-3-5---5-3---3-2---2-0-0---|
A|---3---3-2---2-0---0-----------------------33----------------------------|
E|---------------------3-2-------------------------------------------------|

G|--------------------------|
D|--------3---3-5---5-3-5---|
A|---3---3------------------|
E|--------------------------|

Verse:
G|-----------------------------------------------------------------------|
D|-------------------------3---3-2---2-0---0---2-3-5---5-3---3-2---2-0---|
A|---3---3-2---2-0---0-----------------------33--------------------------|
E|---------------------3-2-----------------------------------------------|

G|-----------------------------------------------------------------------|
D|---0---------------------3---3-2---2-0---0---2-3-5---5-3---3-2---2-0---|
A|-----3---3-2---2-0---0---------------------33--------------------------|
E|----------------------3-2----------------------------------------------|

G|------------------------------------------------|
D|---0---------------------3---3-2---2-0------5---|
A|----3---3-2---2-0---0---------------------------|
E|---------------------3-2------------------------|

Chorus:
G|-------------------------------------------------------------------------|
D|-------------------------3---3-2---2-0---0---2-3-5---5-3---3-2---2-0-0---|
A|---3---3-2---2-0---0-----------------------33----------------------------|
E|---------------------3-2-------------------------------------------------|

G|------------------------|
D|--------3---3-----5-5---|
A|---3---3-----3---3------|
E|------------------------|

Repeat Intro, Verse, Chorus.  HAVE FUN!
            
Submit corrections


        A Whiter Shade Of Pale lessons Hard to play? Try these video lessons and learn fast A Whiter Shade Of Pale lessons
        
↑ Back to top | Tablatures and chords for acoustic guitar and electric guitar, ukulele, drums are parodies/interpretations of the original songs. You may use it for private study, scholarship, research or language learning purposes only