Home » P » Proclaimers »

Proclaimers - Im Gonna Be Bass

Artists:  A B C D E F G H I J K L M N O P Q R S T U V W X Y Z # 

Im Gonna Be Bass

(ver. 1) Click to play this song!
Proclaimers
Proclaimers - I'm Gonna Be (500 Miles)

Verse 1, Verse 3a
      Q  H.       Q  H.       H   H     Q   H.      
G||------------|-----------|----------|------------||---------------|
D||*-----2-----|-----2-----|----------|-----2----*-||-----2---------|
A||*-----------|-----------|--0---2---|----------*-||---------------|
E||---0--------|--0--------|----------|--0---------||--0--------7s--|
Chorus
|--------------|----------------|----------------|------------------|
|*-------------|----------------|----------------|----------------*-|
|*-------------|----------------|--0--0--0--0-2--|--2--2--2--2-2--*-|
|--0--0--0--0--|--0--0--0--0-0--|----------------|------------------|
Verse 2, Verse 3b
|---------------|--------------|--------------|----------------|
|*--------------|--------------|--------------|--------------*-|
|*--------------|--------------|--0--0--2--2--|--------------*-|
|---0--0--0--0--|--0--0--0--0--|--------------|--0--0--0--0-0--|
Transition
|--------------|------------|-----|----------------|-------------------|
|--------------|------------|-----|----------------|-------------------|
|--4--4--4--4--|------------|-----|----------------|-------------------|
|--------------|--5----7----|--L--|--0--0--0--0-0--|--0-0-0-0-0-0-0----|

Verse 1
When I wake up, well I know I'm gonna be
I'm gonna be the man who wakes up next to you
When I go out, yeah I know I'm gonna be
I'm gonna be the man who goes along with you

If I get drunk, well I know I'm gonna be
I'm gonna be the man who gets drunk next to you
And if I haver, yeah I know I'm gonna be
I'm gonna be the man who's havering to you

Chorus
But I would walk five hundred miles
And I would walk five hundred more
Just to be the man who walked five thousand miles
To fall down at your door

Verse 2
When I'm working, yes I know I'm gonna be
I'm gonna be the man who's working hard for you
And when the money, comes in for the work I do
I'll pass almost every penny on to you

                (When I come home)
When I come home                  oh I know I'm gonna be
I'm gonna be the man who comes back home to you
And if I grow old, well I know I'm gonna be
I'm gonna be the man who's growing old with you

Chorus

Bridge
ah-da-dat-dat (ah-da-dat-dat)
ah-da-dat-dat (ah-da-dat-dat)
~da-da-da-dun-da-da-dum-da-la-dum-da-da-da~

ah-da-dat-dat (ah-da-dat-dat)
ah-da-dat-dat (ah-da-dat-dat)
~da-da-da-dun-da-da-dum-da-la-dum-da-da-da~

Verse 3a
When I'm lonely, well I know I'm gonna be
I'm gonna be the man whose lonely without you
And when I'm dreaming, well I know I'm gonna dream
Dream about the time when I'm with you.
Verse 3b
              (When I go out)
When I go out                well I know I'm gonna be
I'm gonna be the man who goes along with you
                     (When I come home)
And when I come home                   yes I know I'm gonna be,
I'm gonna, be the man who comes back home with you
I'm gonna be the man who's coming home..... with you 
Transition
Chorus
Bridge
Bridge
Chorus
            
Submit corrections

↑ Back to top | Tablatures and chords for acoustic guitar and electric guitar, ukulele, drums are parodies/interpretations of the original songs. You may use it for private study, scholarship, research or language learning purposes only