Home » P » Proclaimers »

Proclaimers - 500 Miles Bass

Artists:  A B C D E F G H I J K L M N O P Q R S T U V W X Y Z # 

500 Miles Bass

(ver. 1) Click to play this song!
Proclaimers
If your looking for the easy bass for this song then you want this:
intro
[-----------------------------------------------------]
[---------------------------0--00--2--22--------------]
[-0--0--0--00--0--0--0--00----------------0--0--0--00-]
[-----------------------------------------------------]

play that twice and then play this

[----------------------------------------------------]
[---------------------------0--00--2--22-------------]
[-0--0--0--00--0--0--0--00----------------0--0--0--0-]
[----------------------------------------------------]

then play this

[------------------------------------------------]
[---------------------------0--00--0--00--2--22--]
[-0--0--0--00--0--0--0--00-----------------------]
[------------------------------------------------]

and then finaly this

[---------------------------------------------------]
[---------------------------0000--2222--------------]
[-0--0--0--00--0--0--0--00--------------0--0--0--00-]
[---------------------------------------------------]
            
Submit corrections

↑ Back to top | Tablatures and chords for acoustic guitar and electric guitar, ukulele, drums are parodies/interpretations of the original songs. You may use it for private study, scholarship, research or language learning purposes only