» » »

Primus - The Seven Bass

Artists:  A B C D E F G H I J K L M N O P Q R S T U V W X Y Z # 

The Seven Bass

(ver. 1) Click to play this song!
Primus
 Rating:
4.3/5 (12 votes)

 The Seven lessons Tabs too difficult? Try these video lessons and learn fast
 
                [Intro]
You can play this with your fingers like Les, but you can hear
that he plucks the strings very hard. I like to make it easier
for myself, thus I slap this part.

    s h h                                  s h h   
G|--------------------------------------|---------------------------------------|
D|--------------------------------------|---------------------------------------|
A|--------------------------------------|---------------------------------------|
D|--0-4-5---4---5---4---5---5-5-5-4---5-|--0-4-5---4---5---4---5---5-5-5-4---5--|

[Verse]
I pop the strings with thumb & middle finger.

    P  P  P  P  P  s sPs  s   P  P  P  P  P  s sPs  s
G|--7--6--4--3--4-----4-----|-4--3--4--3--4-----4----------|
D|--------------------------|------------------------------| 2x
A|--------------------------|------------------------------|
D|--5--4--5--4--5--5-5-4--5-|-5--4--5--4--5--5-5-4--5------|


    P  P  P  P  P  s sPs   s  P  P  P  P 
G|--7--6--4--3--4-----4--|----4--3--4--3--|
D|-----------------------|----------------|
A|-----------------------|----------------|
D|--5--4--5--4--5--5-5-4-|-5--5--4--5--4--|

[Chorus]
This part may look difficult, but it is actually easy once you figured out
the pattern.

G|------------------------------|-----------------------------|---------------------------|
D|----5-------3-5---5-------3-5-|---5-------3-5---5-------3-5-|---7-------5-7---9-------7-|
A|------4---4---------4---4-----|-----4---4---------4---4-----|-----6---6---------8---8---|
D|--5-----5-------5-----5-------|-5-----5-------5-----5-------|-7-----7-------9-----9-----|

    * * * * * * * * * * * * * *
G|-----------------------------|
D|----5-------3-5---5-------3-5| 4x
A|------4---4---------4---4----|
D|--5-----5-------5-----5------|
                                * * * * * * * * * * *
G|----------------------------|----------------------------|
D|--7-------5-7---9-------7-9-|---5-------3-5---5-------3-5| 2x
A|----6---6---------8---8-----|-----4---4---------4---4----|
D|7-----7-------9-----9-------|-5-----5-------5-----5------|

[Verse]
                                      s h h
G|----------------------------------|-------------------------------------------|
D|----------------------------------|-------------------------------------------|
A|----------------------------------|-------------------------------------------|
D|-5---4---5---4---5---5-5-5-4---5--|-0-4-5---4---5---4---5---5-5-5-/-24-\------|


    P  P  P  P  P  s sPs  s   P  P  P  P  P  s sPs  s
G|--7--6--4--3--4-----4-----|-4--3--4--3--4-----4----------|
D|--------------------------|------------------------------| 3x
A|--------------------------|------------------------------|
D|--5--4--5--4--5--5-5-4--5-|-5--4--5--4--5--5-5-4--5------|


    P  P  P  P  P  s sPs  s   P  P  P  P 
G|--7--6--4--3--4-----4-----|-4--3--4--3--|
D|--------------------------|-------------|
A|--------------------------|-------------|
D|--5--4--5--4--5--5-5-4--5-|-5--4--5--4--|

[Chorus]
G|------------------------------|-----------------------------|---------------------------|
D|----5-------3-5---5-------3-5-|---5-------3-5---5-------3-5-|---7-------5-7---9-------7-|
A|------4---4---------4---4-----|-----4---4---------4---4-----|-----6---6---------8---8---|
D|--5-----5-------5-----5-------|-5-----5-------5-----5-------|-7-----7-------9-----9-----|

    * * * * * * * * * * * * * *
G|-----------------------------|
D|----5-------3-5---5-------3-5| 4x
A|------4---4---------4---4----|
D|--5-----5-------5-----5------|
                                * * * * * * * * * * * 
G|----------------------------|----------------------------|
D|--7-------5-7---9-------7-9-|---5-------3-5---5-------3-5| 2x
A|----6---6---------8---8-----|-----4---4---------4---4----|
D|7-----7-------9-----9-------|-5-----5-------5-----5------|

[Outro]
This part is entirely hammer-on, expect for the very last part, which is simply the chorus again.
The 17/16-notes are played with the right hand, like in Jerry Was A Race Car Driver.
The second part might be a bit confusing regarding which hand to use.
Therefore, they are signified by (r = right hand) and (l = left hand) for with which
hand to play the notes.


G|-------------17-17-17-------------17-17-17-|
D|----11-------16-16-16----11-------16-16-16-| x4
A|-------10-------------------10-------------|
D|-11-------11----------11-------11----------|


   l  l  l  l  r  l  l  l  l  l  l  r  r  r    l  l  l  l  r  l  l  l  l  l  l  r  r  r
G|----------------------------------17-17-17-|----------------------------------17-17-17-|
D|----14-------16-12-14----14-------16-16-16-|----14-------16-12-14----14-------16-16-16-|
A|-------13-------------------13-------------|-------13-------------------13-------------|
D|-14-------14----------14-------14----------|-14-------14----------14-------14----------|


G|-------------17-17-17-------------17-17-17-|
D|----11-------16-16-16----11-------16-16-16-| x2
A|-------10-------------------10-------------|
D|-11-------11----------11-------11----------|


   l  l  l  l  r  l  l  l  l  l  l  r  r  r    l  l  l  l  r  l  l  l  l  l  l  r  r  r
G|----------------------------------17-17-17-|----------------------------------17-17-17-|
D|----14-------16-12-14----14-------16-16-16-|----14-------16-12-14----14-------16-16-16-|
A|-------13-------------------13-------------|-------13-------------------13-------------|
D|-14-------14----------14-------14----------|-14-------14----------14-------14----------|


G|-------------17-17-17-------------17-17-17-|
D|----11-------16-16-16----11-------16-16-16-| x2
A|-------10-------------------10-------------|
D|-11-------11----------11-------11----------|


   l  l  l  l  r  l  l  l  l  l  l  r  r  r    l  l  l  l  r  l  l  l  l  l  l  r  r  r
G|----------------------------------17-17-17-|----------------------------------17-17-17-|
D|----14-------16-12-14----14-------16-16-16-|----14-------16-12-14----14-------16-16-16-|
A|-------13-------------------13-------------|-------13-------------------13-------------|
D|-14-------14----------14-------14----------|-14-------14----------14-------14----------|


G|-------------17-17-17---------17-17-17-|---------17-17-17---------17-17-17-|
D|----11-------16-16-16---9-----16-16-16-|---7-----16-16-16---6-----16-16-16-|
A|-------10-----------------8------------|-----6----------------5------------|
D|-11-------11----------9-----9----------|-7-----7----------6-----6----------|


G|------------------------------|-----------------------------|----------------------------------------------|
D|----5-------3-5---5-------3-5-|---5-------3-5---5-------3-5-|---7-------5-7---9-------7-9----5-------3-5---|
A|------4---4---------4---4-----|-----4---4---------4---4-----|-----6---6---------8---8----------4---4-------|
D|--5-----5-------5-----5-------|-5-----5-------5-----5-------|-7-----7-------9-----9--------5-----5-------5-|            
Submit corrections


        The Seven lessons Hard to play? Try these video lessons and learn fast The Seven lessons
        
↑ Back to top | Tablatures and chords for acoustic guitar and electric guitar, ukulele, drums are parodies/interpretations of the original songs. You may use it for private study, scholarship, research or language learning purposes only