» » »

Primus - The Seven Tabs

Artists:  A B C D E F G H I J K L M N O P Q R S T U V W X Y Z # 

The Seven Tabs

(ver. 1) Click to play this song!
Primus
 Rating:
4.4/5 (5 votes)

 The Seven lessons Tabs too difficult? Try these video lessons and learn fast
 
                [Intro]
e|----------------|       
B|----------------|    
G|----------------|    
D|--5-5-5--4--5/--|   
A|----------------|    
E|--3-3-3--2--3/--|    


[Verse]
e|---------------------------------------------------------------------------------------|
B|-15---14---12---11---8---8-8-8---7---8----8---11---12---14---15---15-15-15---14---15---|
G|---------------------------------------------------------------------------------------|
D|-12---11---9----8----5---5-5-5---4---5----5---8----9----11---12---12-12-12---11---12---|  x2
A|---------------------------------------------------------------------------------------|
E|---------------------------------------------------------------------------------------|

e|-------------------------------------------------------------------|
B|-15---14---12---11---8---8-8-8---7---8----8---11---12---14---------|
G|-------------------------------------------------------------7-----|
D|-12---11---9----8----5---5-5-5---4---5----5---8----9----11---9-----|
A|-------------------------------------------------------------10----|
E|-------------------------------------------------------------------|

e|-----------------------------------------------------------------------|
B|---------10--10--10----10--12--12-12-12-12-----------------------------|
G|-----------------------------------------------------------------------|
D|---------7---7---7-----7---9---9--9--9--9------------------------------|
A|-----------------------------------------------------------------------|
E|-----------------------------------------------------------------------|


[Chorus]
e|-2---------2------------2-----------2-------------|
B|-2---------2------------2-----------2-------------|
G|-3--0-4-0--3-0---4-0-4--3-0--4-0-4--3-0---4-0-4---|
D|--------------------------------------------------|
A|--------------------------------------------------|
E|--------------------------------------------------|

e|-2-----------2------------2-----------2----------11----|
B|-2-----------2------------2-----------2----------------|
G|-3-0--4-0-4--3-0---4-0-4--3-0--4-0-4--3-0-----12*------|
D|-------------------------------------------------------|
A|-------------------------------------------------------|
E|-------------------------------------------------------|


e|---------------------------------------------2-------2-------------------|
B|---------10--10--10----10--12--12-12-12-12---2-------2------------4------|
G|---------------------------------------------3-0-4-0-3--0-------4--------|
D|---------7---7---7-----7---9---9--9--9--9---------------------5----------|
A|-------------------------------------------------------------------------|
E|-------------------------------------------------------------------------|

e|---------------------------------------------2-------2-------------11-------------------------|
B|---------10--10--10----10--12--12-12-12-12---2-------2----------12*-----8~~~-------3/---------|
G|---------------------------------------------3-0-4-0-3--0----12*--------7~~~-------3/---------|
D|---------7---7---7-----7---9---9--9--9--9-------------------------------9~~~------------------|
A|----------------------------------------------------------------------------------------------|
E|------------------------------------------------------------------------------------------15\-|


[Verse]
e|---------------------------------------------------------------------------------------|
B|-15---14---12---11---8---8-8-8---7---8----8---11---12---14---15---15-15-15---14---15---|
G|---------------------------------------------------------------------------------------|
D|-12---11---9----8----5---5-5-5---4---5----5---8----9----11---12---12-12-12---11---12---|  x3
A|---------------------------------------------------------------------------------------|
E|---------------------------------------------------------------------------------------|

e|------------------------------------------------------------------|
B|-15---14---12---11---8---8-8-8---7---8----8---11---12---14----8---|
G|--------------------------------------------------------------7---|
D|-12---11---9----8----5---5-5-5---4---5----5---8----9----11----9---|
A|------------------------------------------------------------------|
E|------------------------------------------------------------------|


e|------------------------------------------------------------------------|
B|----------10--10--10----10--12--12-12-12-12-----------------------------|
G|------------------------------------------------------------------------|
D|----------7---7---7-----7---9---9--9--9--9------------------------------|
A|------------------------------------------------------------------------|
E|------------------------------------------------------------------------|


[Chorus]
e|-2---------2------------2-----------2----------| 
B|-2---------2------------2-----------2----------|   
G|-3--0-4-0--3-0---4-0-4--3-0--4-0-4--3-0---4-0--|  
D|-----------------------------------------------|
A|-----------------------------------------------|   
E|-----------------------------------------------|   

e|-2---------2------------2-----------2----------|
B|-2---------2------------2-----------2-------0--| 
G|-3--0-4-0--3-0---4-0-4--3-0--4-0-4--3-0---4-0--|    
D|-----------------------------------------------|
A|-----------------------------------------------|   
E|-----------------------------------------------|  

e|---------------------------------------------2-------2----------------18--|
B|---------10--10--10----10--12--12-12-12-12---2-------2-------------12*----|
G|---------------------------------------------3-0-4-0-3--0------12*--------|
D|---------7---7---7-----7---9---9--9--9--9---------------------------------|
A|--------------------------------------------------------------------------|
E|--------------------------------------------------------------------------|

e|---------------------------------------------2-------2-----------------12---|
B|---------10--10--10----10--12--12-12-12-12---2-------2-------------12*-12---|
G|---------------------------------------------3-0-4-0-3--0------12*----------|
D|---------7---7---7-----7---9---9--9--9--9-----------------------------------|
A|----------------------------------------------------------------------------|
E|----------------------------------------------------------------------------|


[Outro]
e|---------------------------------------------------------------------------------------|
B|------4---------4---------4-----------4---------4-----------4--------4---------4-------|
G|-6----4----6----4----6----4------6----4----6----4----6------4----6---4----6----4-------|
D|---5---------5---------5-----(5)---5---------5---------5-5---------5--------5----------|
A|---------------------------------------------------------------------------------------|
E|---------------------------------------------------------------------------------------|

e|-----------------------------------------------------------------------|
B|----------7-----7-----------7---------------7-----7-----------7--------|
G|--7---9-----7-9---7-------7---------7---9-----7-9---7-------7----------|
D|----8---8-----------8---8-------------8---8-----------8---8------------|
A|----------------------9---------------------------------9--------------|
E|-----------------------------------------------------------------------|

e|---------------------------------------|
B|------4---------4---------4---------4--|
G|-6----4----6----4----6----4----6----4--|
D|---5---------5---------5---------5-----|
A|---------------------------------------|
E|---------------------------------------|

e|-----------------------------------------------------------------------|
B|----------7-----7-----------7---------------7-----7-----------7--------|
G|--7---9-----7-9---7-------7---------7---9-----7-9---7-------7----------|
D|----8---8-----------8---8-------------8---8-----------8---8------------|
A|----------------------9---------------------------------9--------------|
E|-----------------------------------------------------------------------|

e|-------------------------------------------------------------|
B|-------------------------------------------------------------|
G|--10--8--6------6--8--10-8-----10--8--6------6--8--10-8------|
D|--11--9--7------7--9--11-------11--9--7------7--9--11--------|
A|-------------------------------------------------------------|
E|-------------------------------------------------------------|

e|-------------------------------------------------------------------------------------|
B|--------------------15--------------------------------15----15-----------------------|
G|----------15-----------15---------------15--------15-----15----15---------------15---|
D|-------14--------13-------14---------14---------14----------------14---------14------|
A|----13-----------------------13---13----------13---------------------13---13---------|
E|--0-----------------------------------------0----------------------------------------|

e|---------------------------------------------|
B|---------------------------------------------|
G|---------------------------------------------|
D|--11-------9-------7-------6-----------------|
A|--10-------8-------6-------5-----------------|
E|---------------------------------------------|

e|------------------------------------------------------------------|
B|------------------------------------------------------------------|
G|------------------------------------------------------------------|
D|----5-------3-5----5-------3-5----5-------3-5----5-------3-5------|
A|--4---4---4------4---4---4------4---4---4------4---4---4----------|
E|--------3--------------3--------------3--------------3------------|

e|--------------------------------------------------|
B|--------------------------------------------------|
G|--------------------------------------------------|
D|----7-------5-7---9-------7-9---5-------3-5-------|
A|--6---6---6-----8---8---8-----4---4---4-----------|
E|--------5-------------7-------------3-------3-----|            
Submit corrections


        The Seven lessons Hard to play? Try these video lessons and learn fast The Seven lessons
        
↑ Back to top | Tablatures and chords for acoustic guitar and electric guitar, ukulele, drums are parodies/interpretations of the original songs. You may use it for private study, scholarship, research or language learning purposes only