» » »

Post Malone - Better Now Tabs

Artists:  A B C D E F G H I J K L M N O P Q R S T U V W X Y Z # 

Better Now Tabs

(ver. 1) Click to play this song!
Post Malone
 Rating:
4.3/5 (13 votes)

 Better Now lessons Tabs too difficult? Try these video lessons and learn fast
 
                [Intro]

e|-0---2--------------------------------------------------------------------------|
B|-1---3---0---1------------------------------------------------------------------|
G|-2---2---0---0------------------------------------------------------------------|
D|-2---0---0---2------------------------------------------------------------------|
A|-0-----------3------------------------------------------------------------------|
E|---------3----------------------------------------------------------------------|

[Chorus]

e|--------------------------|-x-------------x---------------|-x-------------x---------|
B|--------------------------|-x-------------x---------------|-x-------3-3-3-3-1-1-0---|
G|-4/7-7-7-7-5-5-4----------|-x-------7-7-7-7-5-5-4-0h2-2---|-x-0h2-2-------x---------|
D|------------------5/7-7---|-x-5/7-7-------x-------0-----0-|-x-0-----------x---------|
A|------------------0-----0-|-x-0-----------x---------------|-x-------------x---------|
E|--------------------------|-x-------------x---------------|-x-------------x---------|

e|---------x-------------x-------------x-|-----------------------------x------------|
B|---------x-------------x-------------x-|-----------------------------x------------|
G|-0h2-2---x-0h2-2-0-0---0-0-0---0-0---0-|-------7-7-7-7-5-5-4---------x-------7-7-7|
D|---------x-----------2-x-----------2-x-|-4/7-7---------------5/7-7---x-5/7-7------|
A|---------x-------------x-----3-------x-|---------------------0-----0-x-0----------|
E|-3-----3-x-3-----------x-------------x-|-----------------------------x------------|

e|-x---------------|-x-------------x---------------|-x-------------x-------------x----|
B|-x---------------|-x-------3-3-3-3-1-1-0---------|-x-------------x-------------x----|
G|-7-5-5-4-0h2-2---|-x-0h2-2-------x-------0h2-2---|-x-0h2-2-0-0---0-0-0---0-0---0----|
D|-x-------0-----0-|-x-0-----------x---------------|-x-----------2-x-----------2-x-4/7|
A|-x---------------|-x-------------x---------------|-x-------------x-----3-------x----|
E|-x---------------|-x-------------x-------3-----3-|-x-3-----------x-------------x----|

e|------------------------------|
B|-----0h1p0--------------------|
G|---0-------2p0----------------|
D|-7----------------------------|
A|------------------------------|
E|------------------------------|

[Verse 1]

e|---------x-----------x-------------|-x-----------x-------------x-----------x------|
B|---------x-----------x-------------|-x-----------x-------------x-----------x------|
G|---------x-------4---x-------------|-x-------4---x-----0-0-0-0-x-0-0-0-4-0-x-----0|
D|-5-5-5-5-x-5-5-5---5-x-----5-5-5-5-|-x-5-5-5---5-x-------------x-----------0h2-0--|
A|---------x-----------5/7-5-5-------|-x-5---------5/7-5---------x-----------x-----3|
E|-5-------x-5---------x-------------|-x-----------x-----3-------x-3---------x------|

e|-------x-----------------------x-----------|-x-----------x-----------x---------x--|
B|-------x-----------------------x---0-------|-x-----------x-----------x---------x--|
G|-0-0-0-x-0-0-0-4-0---0-2-2-2---2-2---2-0-0-|-x---2-2-2---2-2-4-2-0-0-0-2-2-2---2--|
D|-------x-----------2---2-2-2---2-2--------0|-2p0-0-----0-x-0---------x---------x--|
A|-------x-3-------------0-----0-x-0---------|-x-----------x-----------x---------x--|
E|-------x-----------------------x-----------|-x-----------x-----------x-3-----3—x--|

e|-----------x-----------x-----------x-----|---------------------|--------------------|
B|-----------x-----------x-----------x-0-0-|---------------0-0-0-|---------------0----|
G|-2-4-2-0-0-x---2-2-2---2-2-4-2-0-0-0-----|---------0-0-2-------|---------0-0-2---2p0|
D|-----------2p0---------x-----------x-----|-0-0-2-2-------------|-0-0-2-2------------|
A|-----------x---3-----3-x-3---------x-----|-0-------------------|-5------------------|
E|-3---------x-----------x-----------x-----|---------------------|--------------------|

e|--------------------------|-------------------------------------------------------|
B|-0-0----------------0-----|-2/3-3-3-3-3-1-0---------------------------------------|
G|--------------0-0-2---0-0-|-----------------2-------------------------------------|
D|-----0-0-2-2--------------|-------------------------------------------------------|
A|--------------------------|-2/3---------------------------------------------------|
E|-----3--------------------|-------------------------------------------------------|

[Chorus]

e|--------------------------|-x-------------x---------------|-x-------------x---------|
B|--------------------------|-x-------------x---------------|-x-------3-3-3-3-1-1-0---|
G|-4/7-7-7-7-5-5-4----------|-x-------7-7-7-7-5-5-4-0h2-2---|-x-0h2-2-------x---------|
D|------------------5/7-7---|-x-5/7-7-------x-------0-----0-|-x-0-----------x---------|
A|------------------0-----0-|-x-0-----------x---------------|-x-------------x---------|
E|--------------------------|-x-------------x---------------|-x-------------x---------|

e|---------x-------------x-------------x-|-----------------------------x------------|
B|---------x-------------x-------------x-|-----------------------------x------------|
G|-0h2-2---x-0h2-2-0-0---0-0-0---0-0---0-|-------7-7-7-7-5-5-4---------x-------7-7-7|
D|---------x-----------2-x-----------2-x-|-4/7-7---------------5/7-7---x-5/7-7------|
A|---------x-------------x-----3-------x-|---------------------0-----0-x-0----------|
E|-3-----3-x-3-----------x-------------x-|-----------------------------x------------|

e|-x---------------|-x-------------x---------------|-x-------------x-------------x----|
B|-x---------------|-x-------3-3-3-3-1-1-0---------|-x-------------x-------------x----|
G|-7-5-5-4-0h2-2---|-x-0h2-2-------x-------0h2-2---|-x-0h2-2-0-0---0-0-0---0-0---0----|
D|-x-------0-----0-|-x-0-----------x---------------|-x-----------2-x-----------2-x-4/7|
A|-x---------------|-x-------------x---------------|-x-------------x-----3-------x----|
E|-x---------------|-x-------------x-------3-----3-|-x-3-----------x-------------x----|

e|------------------------------|
B|-----0h1p0--------------------|
G|---0-------2p0----------------|
D|-7----------------------------|
A|------------------------------|
E|------------------------------|

[Verse 2]

e|---------x-------------------|-------x-----------------|---------x-----------------|
B|---0-0-0-0-------------------|-0-0-0-0-----------------|---0-0-0-0-----------------|
G|---------x-2-2-0-0h2---------|-------x-2-2-0-0h2-------|---------x-2-2-0-0h2-------|
D|---------x-------------VV∧-0-|-------x-0---------0-VV∧-|---------x-------------VV∧-|
A|-0-------x-0---------0-------|-------x-----------------|---------x-----------------|
E|---------x-------------------|-------x-----------------|-3-------x-3---------3-----|

e|---------x------------|-x-------------x---------|-x-x-----------x---------x-x-----|
B|---0-0-0-0------------|-x-----3-3-3---3-0-0-----|-x-x---3-3-3---3-0-0-----x-x---3-|
G|---------x-2-2-0-0h2--|-x-0-0---------x---------|-0-0-0---------x---------0-0-0---|
D|---------x------------|-x-------------x---------|-x-x---0-----0-x-0-------x-x-----|
A|-3-------x-3----------|-x-----0-----0-x-0-------|-x-x-----------x---------x-x-----|
E|---------x------------|-x-------------x---------|-x-x-----------x---------x-x---3-|

e|-------x------|---x-x-----------x------------------------------------------------|
B|-3-3---3-0-0--|---x-x---3-3-3-0-0---0--------------------------------------------|
G|-------x------|---0-0-0---------x-2----------------------------------------------|
D|-------x------|---x-x-----------x------------------------------------------------|
A|-------x------|---x-x---3-------x-3----------------------------------------------|
E|-----3-x-3----|---x-x-----------x------------------------------------------------|

[Chorus]

e|--------------------------|-x-------------x---------------|-x-------------x---------|
B|--------------------------|-x-------------x---------------|-x-------3-3-3-3-1-1-0---|
G|-4/7-7-7-7-5-5-4----------|-x-------7-7-7-7-5-5-4-0h2-2---|-x-0h2-2-------x---------|
D|------------------5/7-7---|-x-5/7-7-------x-------0-----0-|-x-0-----------x---------|
A|------------------0-----0-|-x-0-----------x---------------|-x-------------x---------|
E|--------------------------|-x-------------x---------------|-x-------------x---------|

e|---------x-------------x-------------x-|-----------------------------x------------|
B|---------x-------------x-------------x-|-----------------------------x------------|
G|-0h2-2---x-0h2-2-0-0---0-0-0---0-0---0-|-------7-7-7-7-5-5-4---------x-------7-7-7|
D|---------x-----------2-x-----------2-x-|-4/7-7---------------5/7-7---x-5/7-7------|
A|---------x-------------x-----3-------x-|---------------------0-----0-x-0----------|
E|-3-----3-x-3-----------x-------------x-|-----------------------------x------------|

e|-x---------------|-x-------------x---------------|-x-------------x-------------x----|
B|-x---------------|-x-------3-3-3-3-1-1-0---------|-x-------------x-------------x----|
G|-7-5-5-4-0h2-2---|-x-0h2-2-------x-------0h2-2---|-x-0h2-2-0-0---0-0-0---0-0---0----|
D|-x-------0-----0-|-x-0-----------x---------------|-x-----------2-x-----------2-x-4/7|
A|-x---------------|-x-------------x---------------|-x-------------x-----3-------x----|
E|-x---------------|-x-------------x-------3-----3-|-x-3-----------x-------------x----|

e|------------------------------|
B|-----0h1p0--------------------|
G|---0-------2p0----------------|
D|-7----------------------------|
A|------------------------------|
E|------------------------------|            
Submit corrections


        Better Now lessons Hard to play? Try these video lessons and learn fast Better Now lessons
        
↑ Back to top | Tablatures and chords for acoustic guitar and electric guitar, ukulele, drums are parodies/interpretations of the original songs. You may use it for private study, scholarship, research or language learning purposes only