Home » P » Portal »

Portal - Want You Gone Tabs

Artists:  A B C D E F G H I J K L M N O P Q R S T U V W X Y Z # 

Want You Gone Tabs

(ver. 3) Click to play this song!
Portal
Want You Gone (Portal 2) by Jonathan Coulton

Vocal line sung by GLaDOS


Verse

e|------------------------------------------------------|
B|------------------------------------------------------|
G|---------6-7-6-------------------------6-7-6----------|
D|----7-9----------7-7---9-7-6-7-----7-9-------9-7-9-6--|
A|--7------------------7-----------7--------------------|
E|------------------------------------------------------|

e|-------------------------------------------------------------|
B|-----------------------------------------------10-7-6--------|
G|---------6-7-6-------------------------6-7-6----------6------|
D|----7-9----------7-7---9-7-6-7-----7-9-------9----------9-8--|
A|--7------------------7-----------7---------------------------|
E|-------------------------------------------------------------|

Chorus

e|--------------------------------------------------------------------|
B|------------11-9-7----------------------------11-9-7~--7-7----------|
G|-----------------------------------------------------------9-9-7-6--|
D|--8-9-11-11---------9-8---9-8-------8-9-11-11-----------------------|
A|------------------------9-----9~------------------------------------|
E|--------------------------------------------------------------------|

Outro

e|-----------------|
B|--7-7-7----------|
G|--------9-9-7-6~-|
D|-----------------|
A|-----------------|
E|-----------------|


Lyrics:

Well here we are again,
It’s always such a pleasure,
Remember when you tried to kill me twice?
Oh, how we laughed and laughed,
Except I wasn’t laughing,
Under the circumstances I’ve been shockingly nice.

You want your freedom take it,
That’s what I’m counting on,
I used to want you dead but,
Now I only want you gone.

She was a lot like you,
(Maybe not quite as heavy),
Now little Caroline is in here too.
One day they woke me up,
So I could live forever,
It’s such a shame the same will never happen to you.

You’ve got your short, sad life left,
That’s what I’m counting on,
I’ll let you get right to it,
Now I only want you gone.

Goodbye, my only friend,
Oh, did you think I meant you?
That would be funny if it weren’t so sad,
Well you have been replaced,
I don’t need anyone now,
When I delete you maybe I’ll stop feeling so bad.

Go make some new disaster,
That’s what I’m counting on,
You’re someone else’s problem,
Now I only want you gone,
Now I only want you gone,
Now I only want you gone.
            
Submit corrections

↑ Back to top | Tablatures and chords for acoustic guitar and electric guitar, ukulele, drums are parodies/interpretations of the original songs. You may use it for private study, scholarship, research or language learning purposes only