Home » P » Porcupine Tree »

Porcupine Tree - The Moon Touches Your Shoulder Tabs

Artists:  A B C D E F G H I J K L M N O P Q R S T U V W X Y Z # 

The Moon Touches Your Shoulder Tabs

(ver. 1) Click to play this song!
Porcupine Tree
[Intro]

   Em                   D                   Asus2                D
e|--------------------|-------------------|--------------------|-12-12\10-------|
B|-12-----------------|-10----------------|-10-10-10/12--------|----------------|
G|-11-----------------|-9-----------------|-------------9-9----|----------------|
D|--------------------|-------------------|--------------------|----------------|
A|--------------------|-------------------|--------------------|----------------|
E|--------------------|-------------------|--------------------|----------------|

   Em                   D                   Asus2                D
e|--------------------|-------------------|--------------------|----------------|
B|-10-10-10/12--------|-10----------------|-7-8-10-10/12-------|-10-------------|
G|--------------------|-9-----------------|--------------9-9---|-9--------------|
D|--------------------|-------------------|--------------------|----------------|
A|--------------------|-------------------|--------------------|----------------|
E|--------------------|-------------------|--------------------|----------------|

[Verse 1]

   Em                   D                   Asus2                D
e|--------------------|-------------------|-10-10/12-----------|----------------|
B|-12-----------------|-12-12-12/10-10-10-|----------12-12-----|-10-------------|
G|-11-----------------|-------------------|--------------------|-9--------------|
D|--------------------|-------------------|--------------------|----------------|
A|--------------------|-------------------|--------------------|----------------|
E|--------------------|-------------------|--------------------|----------------|

   Em                   D                   Asus2                D
e|--------------------|-------------------|--------------------|----------------|
B|-12-----------------|-12-12-12\10-------|---7-7\5------------|----------------|
G|-11-----------------|-------------------|-7------------------|----------------|
D|--------------------|-------------------|--------------------|----------------|
A|--------------------|-------------------|--------------------|----------------|
E|--------------------|-------------------|--------------------|----------------|

[Verse 2]

   Em                    D                              Asus2                D
e|---------------------|-10-10-10-10-10---12-12-------|--------------------|-------------------|
B|-12-------10-10------|------------------------12-12-|-10-----------------|-10-10/12----------|
G|-11-------9----------|------------------------------|-9------------------|------------9-9----|
D|---------------------|------------------------------|--------------------|-------------------|
A|---------------------|------------------------------|--------------------|-------------------|
E|---------------------|------------------------------|--------------------|-------------------|

   Em                    D                         Asus2                D
e|---------------------|-------------------------|-----0--------------|-10-10-10-10~~~--|
B|------7--------------|-10-10-10-10-10/12-12-12-|---10---------------|-----------------|
G|------6--------------|-------------------------|-11-----------------|-----------------|
D|---------------------|-------------------------|--------------------|-----------------|
A|---------------------|-------------------------|--------------------|-----------------|
E|---------------------|-------------------------|--------------------|-----------------|


[Chorus 1]

   F#m                           Am
e|------------17-14------------|----------19-----14----------|
B|-5-/-7-------------17-14-----|-12----------17-----12-------|
G|-----------------------------|-11--------------------------|
D|-----------------------------|-12--------------------------|
A|-----------------------------|-----------------------------|
E|-----------------------------|-----------------------------|

   F#m                           Am
e|------------17-14------------|----------19-----14----------|
B|-5-/-7-------------17-14-----|-13-\-12-----17-----12-------|
G|-----------------------------|-----------------------------|
D|-----------------------------|-----------------------------|
A|-----------------------------|-----------------------------|
E|-----------------------------|-----------------------------|

   F#m                           Am
e|------------17-14------------|--------------12--14---------|
B|-14----14----------17-14-----|-17-----13\12--------12------|
G|----13-13--------------------|----16-----------------------|
D|-----------------------------|-----------------------------|
A|-----------------------------|-----------------------------|
E|-----------------------------|-----------------------------|

   F#m                           Am
e|------------17-14------------|----------19-----14----------|
B|-9-----------------17-14-----|-12-\-10-----17-----12-------|
G|-----------------------------|-----------------------------|
D|-----------------------------|-----------------------------|
A|-----------------------------|-----------------------------|
E|-----------------------------|-----------------------------|

[Verse 3]

   Em                    D                         Asus2                   D
e|-12------------------|-12-12-12-12\10-10-10-10-|-10-10/12--------------|-10---------|
B|-12------------------|-------------------------|----------12-12-12-----|-10---------|
G|---------------------|-------------------------|-----------------------|------------|
D|---------------------|-------------------------|-----------------------|------------|
A|---------------------|-------------------------|-----------------------|------------|
E|---------------------|-------------------------|-----------------------|------------|



   Em                    D                   Asus2                        D
e|---------------------|-------------------|-10-10-10-10-10--12-12------|-10-10-10-10-------|
B|-12------------------|-12-12-12\10-10-10-|----------------------12-12-|-------------10-10-|
G|-11------------------|-------------------|----------------------------|-------------------|
D|---------------------|-------------------|----------------------------|-------------------|
A|---------------------|-------------------|----------------------------|-------------------|
E|---------------------|-------------------|----------------------------|-------------------|

[Chorus 2]

   F#m                           Am
e|------------17-14------------|----------19-----14----------|
B|-12----------------17-14-----|-14----------17-----12-------|
G|-11--------------------------|-13--------------------------|
D|-----------------------------|-----------------------------|
A|-----------------------------|-----------------------------|
E|-----------------------------|-----------------------------|

   F#m                           Am
e|------------17-14------------|--------------12--14---------|
B|-14----------------17-14-----|-17-----13\12--------12------|
G|----13-----------------------|----16-----------------------|
D|-----------------------------|-----------------------------|
A|-----------------------------|-----------------------------|
E|-----------------------------|-----------------------------|

   F#m                           Am
e|------------17-14------------|----------19-----14----------|
B|-9-----------------17-14-----|-13-\-12-----17-----12-------|
G|-----------------------------|-----------------------------|
D|-----------------------------|-----------------------------|
A|-----------------------------|-----------------------------|
E|-----------------------------|-----------------------------|

   F#m                           Am
e|------------17-14------------|----------19-----14----------|
B|-14----------------17-14-----|-10----------17-----12-------|
G|--13-------------------------|----9------------------------|
D|-----------------------------|-----------------------------|
A|-----------------------------|-----------------------------|
E|-----------------------------|-----------------------------|

[Chorus 3]
 
  F#m                           Am
e|------------17-14------------|----------19-----14----------|
B|-14---------------17-14------|-17----------17-----12-------|
G|-13--------------------------|----16-17--------------------|
D|-----------------------------|-----------------------------|
A|-----------------------------|-----------------------------|
E|-----------------------------|-----------------------------|

   F#m                           Am
e|------------17-14------------|----------19-----14----------|
B|-14---------------17-14------|-5-----------17-----12-------|
G|-13--------------------------|---5-------------------------|
D|-14--------------------------|-----------------------------|
A|-----------------------------|-----------------------------|
E|-----------------------------|-----------------------------|

   F#m                           Am
e|------------17-14------------|--------------12-------12----|
B|-14---------------14---------|-17-----13\12----13\12-------|
G|-13------------------13------|----16-----------------------|
D|-14--------------------------|-----------------------------|
A|-----------------------------|-----------------------------|
E|-----------------------------|-----------------------------|

   F#m                           Am
e|-----------------------------|-17----20-19-12----15\--(12)-|
B|-12-12/14----------14\-------|-----------------------------|
G|-----------------------------|-----------------------------|
D|-----------------------------|-----------------------------|
A|-----------------------------|-----------------------------|
E|-----------------------------|-----------------------------|

[Solo]

e|----------------------------------------------------------------------|
B|----------------------------------------------------------------------|
G|----------------------------------------------------------------------|
D|-------------7-9/10\9\7-----------7-9/10\9\7---7-9/10\9\7-------------|
A|-9\7-----7-9------------------7-9----------------------------7/9-7-7\-|
E|----------------------------------------------------------------------|


e|-------------------------------------------------|
B|----------------------11b12r10----14\12-12/14----|
G|----11-11-11-11/14-------------------------------|
D|-11----------------------------------------------|
A|-------------------------------------------------|
E|-------------------------------------------------|


e|-----------------------------------9-12-12\9----14\12-9--|
B|-14\12--10-12-12-12/13\12-10-----------------------------|
G|---------------------------------------------------------|
D|---------------------------------------------------------|
A|---------------------------------------------------------|
E|---------------------------------------------------------|


e|----------------------------------------|
B|-13-13-12-12-12\10-10-10~~--------14-14-|
G|----------------------------------13-13-|
D|----------------------------------14-14-|
A|----------------------------------------|
E|----------------------------------------|


[Outro]

e|-------------------------------|---------------------------------|
B|-------------------------------|---------------------------------|
G|-------------------------------|---------------------------------|
D|---4-----2-----4-----2---4-----|---------5---------5---------5---|
A|-----2-4---4-----2-4-------2-4-|---------------------------------|
E|-2-----------2---------2-------|-5-8-7-5---7-8-7-5---5-8-7-5---5-|


e|-------------------------------|-------------------------------|
B|-------------------------------|-------------------------------|
G|-------------------------------|-------------------------------|  
D|---4-----2-----4-----2---4-----|---------5---------------------|
A|-----2-4---4-----2-4-------2-4-|-------------------------5-6-7-|
E|-2-----------2---------2-------|-5-8-7-5---8-7-8-7-5-7-5-------|


e|-------------------------------|---------------------------------|
B|-------------------------------|---------------------------------|
G|-------------------------------|---------------------------------|
D|---4-----2-----4-----2---4-----|---------5---------5---------5---|
A|-----2-4---4-----2-4-------2-4-|---------------------------------|
E|-2-----------2---------2-------|-5-8-7-5---7-8-7-5---5-8-7-5---5-|


e|-------------------------------|-------------------------------|
B|-------------------------------|-------------------------------|
G|-------------------------------|-------------------------------|  
D|---4-----2-----4-----2---4-----|---------5---------------------|
A|-----2-4---4-----2-4-------2-4-|-------------------------5-6-7-|
E|-2-----------2---------2-------|-5-8-7-5---8-7-8-7-5-7-5-------|            
Submit corrections

↑ Back to top | Tablatures and chords for acoustic guitar and electric guitar, ukulele, drums are parodies/interpretations of the original songs. You may use it for private study, scholarship, research or language learning purposes only