Home » P » Polvo »

Polvo - Taste Of Your Mind Tabs

Artists:  A B C D E F G H I J K L M N O P Q R S T U V W X Y Z # 

Taste Of Your Mind Tabs

(ver. 2) Click to play this song!
Polvo

Part 1
------ 

D#--------------------------------------------------------------| 
B---------------------------------------------------------------|
B---------------------------------------------------------------| 
B----5--7--/--10--9-7-9--/--10--\--9--/--10--\--9---------------| 
G---------------------------------------------------------------|
G---------------------------------------------------------------|

D#--------------------------------------------------------------| 
B---------------------------------------------------------------| 
B----7+---------------------------------------------------------| 
B---------------9+----5--7-7--/--10--9-7-9----------------------| 
G---------------------------------------------------------------| 
G---------------------------------------------------------------|

D#-------------------------| 
B--------------------------| 
B----3---3---3-3---3-------| 
B----3---3---3-3---3-------| 
G----0---0---0-0---0-------| 
G----0---0---0-0---0-------|

Repeat according to song. 
 





Part 2
------
 
D#-----------------------------------------------------------------| 
B------------------------------------------------------------------| 
B------------------------------------------------------------------| 
B----5----7-7---5---7-7-5----10-----10--10-----10-10---------------| 
G----4----4-4---4---4-4-4----0------0---0------0--0----------------| 
G----4----4-4---4---4-4-4----0------0---0------0--0----------------| 
 





Part 3
------
 
D#------------------------------------------------------------------------------------| 
B-------------------------------------------------------------------------------------| 
B-------------------------------------------------------------------------------------| 
B----0-0-0--5--/--10----7--\--5--/--7--\--5--/--7--\--5--/--7-------------------------| 
G----3-4-7----------------------------------------------------------------------------| 
G-------------------------------------------------------------------------------------|

D#------------------------------------------------------------------------------------| 
B-------------------------------------------------------------------------------------| 
B-------------------------------------------------------------------------------------| 
B--------------------------5--/--(14)--14-14-15-14-15-17----17--17--17--17------------| 
G--------------------------7--/--(16)--16-16-16-16-16-0-----0---0---0---0-------------| 
G----8--^--(10)-----------------------------------------------------------------------|

D#------------------------------------------------------------------------------------------| 
B-------------------------------------------------------------------------------------------| 
B----14-14-14-14-14-14-14-14-14-14-14-14-14-14----------------------------------------------| 
B----14-14-14-14-14-14-14-14-14-14-14-14-14-14----------------------------------------------| 
G----17-17-17-17-17-17-17-17-17-17-17-17-17-17----------------------------------------------| 
G-----------------------------------------------------------------------0-----0------17--\--| 
             
Submit corrections

↑ Back to top | Tablatures and chords for acoustic guitar and electric guitar, ukulele, drums are parodies/interpretations of the original songs. You may use it for private study, scholarship, research or language learning purposes only