» » »

Pink Floyd - A Pillow Of Winds Tabs

Artists:  A B C D E F G H I J K L M N O P Q R S T U V W X Y Z # 

A Pillow Of Winds Tabs

(ver. 3) Click to play this song!
Pink Floyd
 Rating:
4/5 (4 votes)
                A Intro

E-----------------|
B-0-----0---------|
G---1-----1-------|
E-----2-----2---2-|
B-0---------------|
E-----------------|


B A cloud of eiderdown...

E----------------- -0-2- ---------|
B-2-----2--------- -2-2- -4-----4-|
G---2-----2------- -2-2- ---4-----|
E-----2-----2---2- ----- -----4---|
B-0--------------- ----- -0-------|
E----------------- ----- ---------|


C Sleepy time...

E-------0-- ------- -----|
B-4-5-6-7-- -9-9\7- -6/7-|
G-4-5-6-7-- -9-9\7- -6/7-|
E-------7-- -9-9\7- -6/7-|
B-------0-- ------- -----|
E---------- ------- -----|


D And the candle dies...

E-0--0--0--0--0-- -10-10-10-10/12-|
B-10-10-10-10/12- -10-10-10-10/12-|
G-11-11-11-11/13- -11-11-11-11/13-|
E-0--0--0--0--0-- -0--0--0--0--0--|
B-0--0--0--0--0-- -0--0--0--0--0--|
E-0--0--0--0--0-- -0--0--0--0--0--|


E When night comes down...
Lots of little variations on this
E-----------|
B-0---------|
G-------0---|
E---0-2---0-|
B-0---------|
E-----------|


Fx4          Gx4         Hx4
E-7--------- -2--------- -0---------|
B-----7-8--- -----2-3--- -----0-1---|
G---9-----9- ---4-----4- ---2-----2-|
E-0--------- -0--------- -0---------|
B----------- ----------- -----------|
E----------- ----------- -----------|            
Submit corrections

↑ Back to top | Tablatures and chords for acoustic guitar and electric guitar, ukulele, drums are parodies/interpretations of the original songs. You may use it for private study, scholarship, research or language learning purposes only