» » »

Pink Floyd - Another Brick In The Wall (Part 2) Tabs

Artists:  A B C D E F G H I J K L M N O P Q R S T U V W X Y Z # 

Another Brick In The Wall (Part 2) Tabs

(ver. 2) Click to play this song!
Pink Floyd
 Rating:
4.3/5 (23 votes)
    Another Brick In The Wall (Part 2) lessons Tabs too difficult? Try these video lessons and learn fast
                |---------------------10-------------------10---------------------------------------|
|-13p10----10-----10-----13b(15)r13--------10-10---10~-----13/15-15b(17)--13~-------|
|-------12----12b--------------------------10-10---10~------------------------------|
|-----------------------------------------------------------------------------------|
|-----------------------------------------------------------------------------------|
|-----------------------------------------------------------------------------------|

|---------------------------------------------------------------|
|-13p10---------------------------------------------------------|
|-------12---12b(14)r12-----10p9-------9---------12-------------|
|-----------------------------------12---10/12-------12~\\\\\\--|
|---------------------------------------------------------------|
|---------------------------------------------------------------|

|------------------------------------------------------|
|-10---------10---10--------10---10--------10---12-10^-|
|-10---------10---10--------10---10--------10---12-10^-|
|----12--------------12-------------12-----------------|
|------------------------------------------------------|
|------------------------------------------------------|

|-------13b(15)r13-----13p12---13p12-----------------------------------------------------------------|
|-----x-----------------------------------------13b(15)r13--15b(17)--18--13b(15)13-------------------|
|---x------------------------------------------------------------------------------------------------|
|-x--------------------------------------------------------------------------------------------------|
|----------------------------------------------------------------------------------------------------|
|----------------------------------------------------------------------------------------------------|

|--------------10-------------------------------------------------------------------|
|-----------10----13p10-------------------------------------------------------------|
|-12b(14)---------------12---12b-10---12p10------10b-------12p10--------------------|
|------------------------------------------12-------12p10--12p10--------------------|
|-----------------------------------------------------------------12p10-12p10\8-----|
|-----------------------------------------------------------------------------------|

|-----------------------------------------------------------------------------------|
|-------------------------------------------------------5h6p5-----------------------|
|-----------------------------------------------5---7---------7---7p5------5h7--7---|
|------------------------------------------/7-------------------------7-------------|
|-10p8----------8-------------------------------------------------------------------|
|------10p8-10-----10p8-8--10\\\\\\-------------------------------------------------|

|-------------------------------------------------------------------------------------------------|
|---------6b(8)~---------13pb(15)r13-13/15--15b(17)r15--13~---------------------------------------|
|---7p5-------------------------------------------------------------------------------------------|
|-------------------------------------------------------------------------------------------------|
|-------------------------------------------------------------------------------------------------|
|-------------------------------------------------------------------------------------------------|

|-----15b(17)r15---13p10------------13---12---15b(17)r15b(17)r15b(17)r15b(17)~----------------|
|---x-------------------------/15-------------------------------------------------------------|
|-x-------------------------------------------------------------------------------------------|
|---------------------------------------------------------------------------------------------|
|---------------------------------------------------------------------------------------------|
|---------------------------------------------------------------------------------------------|

|-15pb(17)r15------------18b(20-20~)r18-------------20b(22)r20----------------------------------------|
|----------------15-----------------------------------------------------------------------------------|
|-----------------------------------------------------------------------------------------------------|
|-----------------------------------------------------------------------------------------------------|
|-----------------------------------------------------------------------------------------------------|
|-----------------------------------------------------------------------------------------------------|
                                                                
|-20p17---------20p17---------------------------------------------------|
|-----------------------------------------------------------------------|
|--------------------------------10-----10---10^-----------------x--x---|
|------------------------------------------------12~\\\\---------x--x---|
|-----------------------------------------------------------------------|
|-----------------------------------------------------------------------|

|-----------------------------------------------------|
|--------13---------------12-------12-----10~\--------|
|-12/14--14---x-x---------12-------12-----10~\--------|
|-10/12--12---x-x-------------------------------------|
|-----------------------------------------------------|
|-----------------------------------------------------|
(P.M.>)
|--------------------------------------------------------------|
|------10-----------x-----x-x----------------------------------|
|-x-x--10-----------x-----x-x----------------------------------|
|-x-x-----12---12~---------------------------------------------|
|----------------------------------10---8h10-10-x-8------------|
|---------------------------------------------------10\\\\\\---|            
Submit corrections

↑ Back to top | Tablatures and chords for acoustic guitar and electric guitar, ukulele, drums are parodies/interpretations of the original songs. You may use it for private study, scholarship, research or language learning purposes only