Home » P » Pinback »

Pinback - Penelope Tabs

Artists:  A B C D E F G H I J K L M N O P Q R S T U V W X Y Z # 

Penelope Tabs

(ver. 3) Click to play this song!
Pinback
 Rating:
4/5 (10 votes)
                (Intro)
-------------------------------------------------------------------------------
                             Penelope (Intro) - Pinback
-------------------------------------------------------------------------------

Tuning: EADGBe

e|------------0--------------------0--------------------0--------------------|
B|---------------------------------------------------------------------------|
G|--------7-------7------------7-------7------------7-------7----------------|
D|----0h5---5---5---5------0h5---5---5---5------0h5---5---5---5--------------|
A|--7--------------------7--------------------7------------------------------|
E|---------------------------------------------------------------------------|

e|---------------------------------------------------------------------------|
B|------------0--------------------------------------------------------------|
G|--------7-------7----------------------------------------------------------|
D|----0h5---5---5---5--------------------------------------------------------|
A|--7------------------------------------------------------------------------|
E|---------------------------------------------------------------------------|


I believe this is how it is played.
===============================================================================
            
Submit corrections

↑ Back to top | Tablatures and chords for acoustic guitar and electric guitar, ukulele, drums are parodies/interpretations of the original songs. You may use it for private study, scholarship, research or language learning purposes only