Home » P » Pinback »

Pinback - Penelope Tabs

Artists:  A B C D E F G H I J K L M N O P Q R S T U V W X Y Z # 

Penelope Tabs

(ver. 2) Click to play this song!
Pinback
 Rating:
3.3/5 (6 votes)
                _______________________________________________________________________________

_______________________________________________________________________________

     This is my first tab but I'm pretty sure it's right other than on 
the solo i think there are two guitars playing it, if you have any 
suggestions I'm open to em'.

(Intro)
e |-----------0-----------------------------------|
B |--------3-------3----------------3---0---3-----|
G |----------0---0---0----------------0---0-------|
D |--2p0h2-------------------2p0h2----------------|
A |-----------------------------------------------|
E |-----------------------------------------------|

(Verse)
e |-----------0-------------------------0---------| 
B |--------3-------3---------------3--------3-----|
G |----------0---0---0---------------0---0----0---|
D |--2p0h2-------------------2p0h2----------------|
A |-----------------------------------------------|
E |-----------------------------------------------|

e |-----------0-----------------------------------|
B |--------3-------3----------------3---0---3-----|
G |----------0---0---0----------------0---0-------|
D |--2p0h2-------------------2p0h2----------------|
A |-----------------------------------------------|
E |-----------------------------------------------|

(Note) This is played all the way until the solo.

(Bridge)
e |--------------------------------------------------------------|
B |--------------------------------------------------------------|
G |--4-4-4-4-4-4-4-4-5-5-4-4---0---------------------------------|
D |--------------------------4---4----4-4-4-4-4-4-4-5-7--4/5-4---|
A |--------------------------------5-----------------------------|
E |--------------------------------------------------------------|

e |--------------------------------------------------------------|
b |--------------------------------------------------------------|
g |--------------------------------------------------------------|
d |-4-5-4-2-4/5-4-2-4/5-4-5-4-2-4/5-4-2-4/5-4-5-4-2-4/5-4-2-4/5-4|  
a |--------------------------------------------------------------|
e |--------------------------------------------------------------|

(Note) Play entire bridge twice.

(Verse)
e |-----------0-------------------------0---------| 
B |--------3-------3---------------3--------3-----|
G |----------0---0---0---------------0---0----0---|
D |--2p0h2-------------------2p0h2----------------|
A |-----------------------------------------------|
E |-----------------------------------------------|

e |-----------0-----------------------------------|
B |--------3-------3----------------3---0---3-----|
G |----------0---0---0----------------0---0-------|
D |--2p0h2-------------------2p0h2----------------|
A |-----------------------------------------------|
E |-----------------------------------------------|

Bridge)
e |--------------------------------------------------------------|
B |--------------------------------------------------------------|
G |--4-4-4-4-4-4-4-4-5-5-4-4---0---------------------------------|
D |--------------------------4---4----4-4-4-4-4-4-4-5-7--4/5-4---|
A |--------------------------------5-----------------------------|
E |--------------------------------------------------------------|

e |--------------------------------------------------------------|
b |--------------------------------------------------------------|
g |--------------------------------------------------------------|
d |-4-5-4-2-4/5-4-2-4/5-4-5-4-2-4/5-4-2-4/5-4-5-4-2-4/5-4-2-4/5-4|  
a |--------------------------------------------------------------|
e |--------------------------------------------------------------|

(Outro)
(GTR 1)
e |--------------------------------------------------------------|
B |--------------------------------------------------------------|
G |--4-4-4-4-4-4-4-4-5-5-4-4---0---------------------------------|
D |--------------------------4---4----4-4-4-4-4-4-4-5-7--4/5-4---|
A |--------------------------------5-----------------------------|
E |--------------------------------------------------------------|

e |--------------------------------------------------------------|
b |--------------------------------------------------------------|
g |--------------------------------------------------------------|
d |-4-5-4-2-4/5-4-2-4/5-4-5-4-2-4/5-4-2-4/5-4-5-4-2-4/5-4-2-4/5-4|  
a |--------------------------------------------------------------|
e |--------------------------------------------------------------|

(GTR 2)
e |--------------------------------------------|
B |--------------------------------------------|
G |------0 0-----0 0-----------0-------0-------|
D |--0 0-----0 0-----0 0 0 0-4---4---4---4-----|
A |--------------------------------5-------5---|
E |--------------------------------------------|

e |--------------------------------------------|
B |--------------------------------------------|
G |-----0-------0-----------0-------0----------|
D |--4---4---4---4--------4---4---4---4--------|
A |--------5--------5-----------5---------5---|
E |--------------------------------------------|
| /  slide up
| \  slide down
| h  hammer-on
| p  pull-off
| ~  vibrato
| +  harmonic
| x  Mute note
===============================================================================
            
Submit corrections

↑ Back to top | Tablatures and chords for acoustic guitar and electric guitar, ukulele, drums are parodies/interpretations of the original songs. You may use it for private study, scholarship, research or language learning purposes only