» » »

Pilot - Mike Tabs

Artists:  A B C D E F G H I J K L M N O P Q R S T U V W X Y Z # 

Mike Tabs

(ver. 1) Click to play this song!
Pilot
 Rating:
4/5 (4 votes)

 Mike lessons Tabs too difficult? Try these video lessons and learn fast
 
                (Intro)
-------------------------------------------------------------------------------
                             Mike - Pilot
-------------------------------------------------------------------------------

Tuning: Drop C (C D B E G C)

Lets all give a hurrah to underground bands, eh?

Guitar #1 (Dan)
Figure out the strumming
c|---1--------0--------0--------0---------------xxxx----4--4-----------------|
G|---3--------1--------0--------0---------------xxxx-----------------5-------|
E|---2--------2--------0--------0---------------xxxx---------4--4h5----------|
B|---0--------2--------2--------0---------------xxxx-------------------------|
F|---0---x5---0---x5---2--------2---------------xxxx-------------------------|
C|---------------------0---x5---3---x5---(x2)---xxxx-------------------------|

Guitar #2 (Ryan)
e|---5--------xx---3--------xx---5--------xx---7---------------xxxx--3-4-5---|
B|---5--------xx---3--------xx---5--------xx---7---------------xxxx--3-4-5---|
G|---6--------xx---4--------xx---6--------xx---8---------------xxxx--4-5-6---|
D|---7--------xx---5--------xx---7--------xx---9---------------xxxx--5-6-7---|
A|---7--------xx---5--------xx---7--------xx---9---------------xxxx--5-6-7---|
E|---5---x3---xx---3---x3---xx---5---x3---xx---7---x3---(x2)---xxxx--3-4-5---|

Guitar #3 (Joe)
Plays same as guitar 2 for first part but for 2nd part plays
e|---9--------xx---7--------xx---9--------xx---12--------xxxx--3-4-5---------|
B|---9--------xx---7--------xx---9--------xx---12--------xxxx--3-4-5---------|
G|--10--------xx---8--------xx--10--------xx---13--------xxxx--4-5-6---------|
D|--11--------xx---9--------xx--11--------xx---14--------xxxx--5-6-7---------|
A|--11--------xx---9--------xx--11--------xx---14--------xxxx--5-6-7---------|
E|---9---x3---xx---7---x3---xx---9---x3---xx---12---x3---xxxx--3-4-5---------|
            
Submit corrections


        Mike lessons Hard to play? Try these video lessons and learn fast Mike lessons
        
↑ Back to top | Tablatures and chords for acoustic guitar and electric guitar, ukulele, drums are parodies/interpretations of the original songs. You may use it for private study, scholarship, research or language learning purposes only