» » »

Pillows - Third Eye Tabs

Artists:  A B C D E F G H I J K L M N O P Q R S T U V W X Y Z # 

Third Eye Tabs

(ver. 1) Click to play this song!
Pillows
 Rating:
4/5 (4 votes)

 Third Eye lessons Tabs too difficult? Try these video lessons and learn fast
 
                Standard tuning. This is from what I can hear. May not be 100% accurate. :O


                                                                     x2
e|-----------2-------------2-------------------------------------------|
B|-2-3-2-3-5-----2-3-2-3-5------------2-3----------3-2-----------------|
G|----------------------------2-4-2-4------2-4-2-4---------------------|
D|---------------------------------------------------------------------|
A|---------------------------------------------------------------------|
E|---------------------------------------------------------------------|


                                                                     x2
e|---------------------------------------------------------------------|
B|---------------------------------------------------------------------|
G|-7-7-7-7-7-7-7-7-7-7-7-7-7-7-7-7-------------------------------------|
D|-7-7-7-7-7-7-7-7-7-7-7-7-7-7-7-7-9-9-9-9-9-9-9-9-9-9-9-9-9-9-9-9-----|
A|-5-5-5-5-5-5-5-5-5-5-5-5-5-5-5-5-9-9-9-9-9-9-9-9-9-9-9-9-9-9-9-9-----|
E|---------------------------------7-7-7-7-7-7-7-7-7-7-7-7-7-7-7-7-----|


                                                                     x2
e|-----------2-------------2-------------------------------------------|
B|-2-3-2-3-5-----2-3-2-3-5------------2-3----------3-2-----------------|
G|----------------------------2-4-2-4------2-4-2-4---------------------|
D|---------------------------------------------------------------------|
A|---------------------------------------------------------------------|
E|---------------------------------------------------------------------|

                                                                     x2
e|---------------------------------------------------------------------|
B|---------------------------------------------------------------------|
G|-7-7-7-7-7-7-7-7-7-7-7-7-7-7-7-7-------------------------------------|
D|-7-7-7-7-7-7-7-7-7-7-7-7-7-7-7-7-9-9-9-9-9-9-9-9-9-9-9-9-9-9-9-9-----|
A|-5-5-5-5-5-5-5-5-5-5-5-5-5-5-5-5-9-9-9-9-9-9-9-9-9-9-9-9-9-9-9-9-----|
E|---------------------------------7-7-7-7-7-7-7-7-7-7-7-7-7-7-7-7-----|

e|---------------------------------------------------------------------|
B|---------------------------------------------------------------------|
G|-------------------------------------------------7-7-7-7-7-7-7-7-----|
D|-7-7-7-7-7-7-7-7-9-9-9-9-9-9-9-9-5-5-5-5-5-5-5-5-7-7-7-7-6-6-6-6-----|
A|-7-7-7-7-7-7-7-7-9-9-9-9-9-9-9-9-5-5-5-5-5-5-5-5-5-5-5-5-4-4-4-4-----|
E|-5-5-5-5-5-5-5-5-7-7-7-7-7-7-7-7-3-3-3-3-3-3-3-3---------------------|

e|---------------------------------------------------------------------|
B|---------------------------------------------------------------------|
G|-------------------------------------------------7-----7-------------|
D|-7-7-7-7-7-7-7-7-9-9-9-9-9-9-9-9-5-5-5-5-5-5-5-5-7-----6-------------|
A|-7-7-7-7-7-7-7-7-9-9-9-9-9-9-9-9-5-5-5-5-5-5-5-5-5-----4-------------|
E|-5-5-5-5-5-5-5-5-7-7-7-7-7-7-7-7-3-3-3-3-3-3-3-3---------------------|

e|-3-3-3-3-3-3-3-3-2-2-2-2-2-2-2-2-2-2-2-2-2-2-2-2-2-2-2-2-0-0-0-0-----|
B|-3-3-3-3-3-3-3-3-3-3-3-3-3-3-3-3-2-2-2-2-2-2-2-2-3-3-3-3-2-2-2-2-----|
G|-4-4-4-4-4-4-4-4-2-2-2-2-2-2-2-2-2-2-2-2-2-2-2-2-4-4-4-4-2-2-2-2-----|
D|-5-5-5-5-5-5-5-5-0-0-0-0-0-0-0-0-4-4-4-4-4-4-4-4-4-4-4-4-2-2-2-2-----|
A|-5-5-5-5-5-5-5-5-----------------4-4-4-4-4-4-4-4-2-2-2-2-0-0-0-0-----|
E|-3-3-3-3-3-3-3-3-----------------2-2-2-2-2-2-2-2-2-2-2-2-------------|

e|-3-3-3-3-3-3-3-3-2-2-2-2-2-2-2-2-2-2-2-2-2-2-2-2-2-2-2-2-0-0-0-0-----|
B|-3-3-3-3-3-3-3-3-3-3-3-3-3-3-3-3-2-2-2-2-2-2-2-2-3-3-3-3-2-2-2-2-----|
G|-4-4-4-4-4-4-4-4-2-2-2-2-2-2-2-2-3-3-3-3-3-3-3-3-4-4-4-4-2-2-2-2-----|
D|-5-5-5-5-5-5-5-5-0-0-0-0-0-0-0-0-2-2-2-2-2-2-2-2-4-4-4-4-2-2-2-2-----|
A|-5-5-5-5-5-5-5-5-----------------4-4-4-4-4-4-4-4-2-2-2-2-0-0-0-0-----|
E|-3-3-3-3-3-3-3-3-----------------2-2-2-2-2-2-2-2-2-2-2-2-------------|

e|-3-3-3-3-3-3-3-3-3-3-3-3---------------------------------------------|
B|-3-3-3-3-3-3-3-3-3-3-3-3---------------------------------------------|
G|-4-4-4-4-4-4-4-4-4-4-4-4---------------------------------------------|
D|-5-5-5-5-5-5-5-5-5-5-5-5-88------------------------------------------|
A|-5-5-5-5-5-5-5-5-5-5-5-5-88------------------------------------------|
E|-3-3-3-3-3-3-3-3-3-3-3-3-66------------------------------------------|


                                                                     x2
e|---------------------------------------------------------------------|
B|---------------------------------------------------------------------|
G|-7-7-7-7-7-7-7-7-7-7-7-7-7-7-7-7-------------------------------------|
D|-7-7-7-7-7-7-7-7-7-7-7-7-7-7-7-7-9-9-9-9-9-9-9-9-9-9-9-9-9-9-9-9-----|
A|-5-5-5-5-5-5-5-5-5-5-5-5-5-5-5-5-9-9-9-9-9-9-9-9-9-9-9-9-9-9-9-9-----|
E|---------------------------------7-7-7-7-7-7-7-7-7-7-7-7-7-7-7-7-----|


                                                                     x2
e|---------------------------------------------------------------------|
B|---------------------------------------------------------------------|
G|---------------------------------------------------------------------|
D|---------------------------------------------------------------------|
A|-5-5-5-5-5-5-5-5-5-5-5-5-5-5-5-5-------------------------------------|
E|---------------------------------7-7-7-7-7-7-7-7-7-7-7-7-7-7---------|


                                                                     x2
e|---------------------------------------------------------------------|
B|---------------------------------------------------------------------|
G|-7-7-7-7-7-7-7-7-7-7-7-7-7-7-7-7-------------------------------------|
D|-7-7-7-7-7-7-7-7-7-7-7-7-7-7-7-7-9-9-9-9-9-9-9-9-9-9-9-9-9-9-9-9-----|
A|-5-5-5-5-5-5-5-5-5-5-5-5-5-5-5-5-9-9-9-9-9-9-9-9-9-9-9-9-9-9-9-9-----|
E|---------------------------------7-7-7-7-7-7-7-7-7-7-7-7-7-7-7-7-----|

e|---------------------------------------------------------------------|
B|---------------------------------------------------------------------|
G|-------------------------------------------------7-7-7-7-7-7-7-7-----|
D|-7-7-7-7-7-7-7-7-9-9-9-9-9-9-9-9-5-5-5-5-5-5-5-5-7-7-7-7-6-6-6-6-----|
A|-7-7-7-7-7-7-7-7-9-9-9-9-9-9-9-9-5-5-5-5-5-5-5-5-5-5-5-5-4-4-4-4-----|
E|-5-5-5-5-5-5-5-5-7-7-7-7-7-7-7-7-3-3-3-3-3-3-3-3---------------------|


e|---------------------------------------------------------------------|
B|---------------------------------------------------------------------|
G|-------------------------------------------------7-----7-------------|
D|-7-7-7-7-7-7-7-7-9-9-9-9-9-9-9-9-5-5-5-5-5-5-5-5-7-----6-------------|
A|-7-7-7-7-7-7-7-7-9-9-9-9-9-9-9-9-5-5-5-5-5-5-5-5-5-----4-------------|
E|-5-5-5-5-5-5-5-5-7-7-7-7-7-7-7-7-3-3-3-3-3-3-3-3---------------------|


e|-3-3-3-3-3-3-3-3-2-2-2-2-2-2-2-2-2-2-2-2-2-2-2-2-2-2-2-2-0-0-0-0-----|
B|-3-3-3-3-3-3-3-3-3-3-3-3-3-3-3-3-2-2-2-2-2-2-2-2-3-3-3-3-2-2-2-2-----|
G|-4-4-4-4-4-4-4-4-2-2-2-2-2-2-2-2-2-2-2-2-2-2-2-2-4-4-4-4-2-2-2-2-----|
D|-5-5-5-5-5-5-5-5-0-0-0-0-0-0-0-0-4-4-4-4-4-4-4-4-4-4-4-4-2-2-2-2-----|
A|-5-5-5-5-5-5-5-5-----------------4-4-4-4-4-4-4-4-2-2-2-2-0-0-0-0-----|
E|-3-3-3-3-3-3-3-3-----------------2-2-2-2-2-2-2-2-2-2-2-2-------------|

e|-3-3-3-3-3-3-3-3-2-2-2-2-2-2-2-2-2-2-2-2-2-2-2-2-2-2-2-2-0-0-0-0-----|
B|-3-3-3-3-3-3-3-3-3-3-3-3-3-3-3-3-2-2-2-2-2-2-2-2-3-3-3-3-2-2-2-2-----|
G|-4-4-4-4-4-4-4-4-2-2-2-2-2-2-2-2-3-3-3-3-3-3-3-3-4-4-4-4-2-2-2-2-----|
D|-5-5-5-5-5-5-5-5-0-0-0-0-0-0-0-0-2-2-2-2-2-2-2-2-4-4-4-4-2-2-2-2-----|
A|-5-5-5-5-5-5-5-5-----------------4-4-4-4-4-4-4-4-2-2-2-2-0-0-0-0-----|
E|-3-3-3-3-3-3-3-3-----------------2-2-2-2-2-2-2-2-2-2-2-2-------------|

e|-3-3-3-3-3-3-3-3-3-3-3-3---------------------------------------------|
B|-3-3-3-3-3-3-3-3-3-3-3-3---------------------------------------------|
G|-4-4-4-4-4-4-4-4-4-4-4-4---------------------------------------------|
D|-5-5-5-5-5-5-5-5-5-5-5-5-88------------------------------------------|
A|-5-5-5-5-5-5-5-5-5-5-5-5-88------------------------------------------|
E|-3-3-3-3-3-3-3-3-3-3-3-3-66------------------------------------------|


                                                                     x2
e|-3-3-3-3-3-3-3-3-3-3-3-3-3-3-3-3-2-2-2-2-2-2-2-2-2-2-2-2-2-2-2-2-----|
B|-3-3-3-3-3-3-3-3-3-3-3-3-3-3-3-3-3-3-3-3-3-3-3-3-2-3-2-2-0-2-0-0-----|
G|-4-4-4-4-4-4-4-4-4-4-4-4-4-4-4-4-2-2-2-2-2-2-2-2-2-2-2-2-2-2-2-2-----|
D|-5-5-5-5-5-5-5-5-5-5-5-5-5-5-5-5-0-0-0-0-0-0-0-0-0-0-0-0-0-0-0-0-----|
A|-5-5-5-5-5-5-5-5-5-5-5-5-5-5-5-5-------------------------------------|
E|-3-3-3-3-3-3-3-3-3-3-3-3-3-3-3-3-------------------------------------|


e|---------------------------------------------------------------------|
B|---------------------------------------------------------------------|
G|---------6-7----------6-7--------------------------------------------|
D|-7-9-7-9------7-9-7-9--------------7-9---------9-7--6b7-6-4----4-6b7-|
A|---------------------------7-9-7-9-----7-9-7-9---------------5-------|
E|---------------------------------------------------------------------|


e|---------------------------------------------------------------------|
B|---------------------------------------------------------------------|
G|---------------------------------------------------------------------|
D|6-4------------------------------------------------------------------|
A|-----5-6-6-7b------------5-4-----------------------------------------|
E|--------------7--5-7-5-7---------------------------------------------|

e|---------------------------------------------------------------------|
B|---------------------------------------------------------------------|
G|-------------------------------------------------7-7-7-7-7-7-7-7-----|
D|-7-7-7-7-7-7-7-7-9-9-9-9-9-9-9-9-5-5-5-5-5-5-5-5-7-7-7-7-6-6-6-6-----|
A|-7-7-7-7-7-7-7-7-9-9-9-9-9-9-9-9-5-5-5-5-5-5-5-5-5-5-5-5-4-4-4-4-----|
E|-5-5-5-5-5-5-5-5-7-7-7-7-7-7-7-7-3-3-3-3-3-3-3-3---------------------|


e|---------------------------------------------------------------------|
B|---------------------------------------------------------------------|
G|-------------------------------------------------7-----7-------------|
D|-7-7-7-7-7-7-7-7-9-9-9-9-9-9-9-9-5-5-5-5-5-5-5-5-7-----6-------------|
A|-7-7-7-7-7-7-7-7-9-9-9-9-9-9-9-9-5-5-5-5-5-5-5-5-5-----4-------------|
E|-5-5-5-5-5-5-5-5-7-7-7-7-7-7-7-7-3-3-3-3-3-3-3-3---------------------|


e|-3-3-3-3-3-3-3-3-2-2-2-2-2-2-2-2-2-2-2-2-2-2-2-2-2-2-2-2-0-0-0-0-----|
B|-3-3-3-3-3-3-3-3-3-3-3-3-3-3-3-3-2-2-2-2-2-2-2-2-3-3-3-3-2-2-2-2-----|
G|-4-4-4-4-4-4-4-4-2-2-2-2-2-2-2-2-2-2-2-2-2-2-2-2-4-4-4-4-2-2-2-2-----|
D|-5-5-5-5-5-5-5-5-0-0-0-0-0-0-0-0-4-4-4-4-4-4-4-4-4-4-4-4-2-2-2-2-----|
A|-5-5-5-5-5-5-5-5-----------------4-4-4-4-4-4-4-4-2-2-2-2-0-0-0-0-----|
E|-3-3-3-3-3-3-3-3-----------------2-2-2-2-2-2-2-2-2-2-2-2-------------|

e|-3-3-3-3-3-3-3-3-2-2-2-2-2-2-2-2-2-2-2-2-2-2-2-2-2-2-2-2-0-0-0-0-----|
B|-3-3-3-3-3-3-3-3-3-3-3-3-3-3-3-3-2-2-2-2-2-2-2-2-3-3-3-3-2-2-2-2-----|
G|-4-4-4-4-4-4-4-4-2-2-2-2-2-2-2-2-3-3-3-3-3-3-3-3-4-4-4-4-2-2-2-2-----|
D|-5-5-5-5-5-5-5-5-0-0-0-0-0-0-0-0-2-2-2-2-2-2-2-2-4-4-4-4-2-2-2-2-----|
A|-5-5-5-5-5-5-5-5-----------------4-4-4-4-4-4-4-4-2-2-2-2-0-0-0-0-----|
E|-3-3-3-3-3-3-3-3-----------------2-2-2-2-2-2-2-2-2-2-2-2-------------|

e|-3-3-3-3-3-3-3-3-2-2-2-2-2-2-2-2-2-2-2-2-2-2-2-2-2-2-2-2-0-0-0-0-----|
B|-3-3-3-3-3-3-3-3-3-3-3-3-3-3-3-3-2-2-2-2-2-2-2-2-3-3-3-3-2-2-2-2-----|
G|-4-4-4-4-4-4-4-4-2-2-2-2-2-2-2-2-2-2-2-2-2-2-2-2-4-4-4-4-2-2-2-2-----|
D|-5-5-5-5-5-5-5-5-0-0-0-0-0-0-0-0-4-4-4-4-4-4-4-4-4-4-4-4-2-2-2-2-----|
A|-5-5-5-5-5-5-5-5-----------------4-4-4-4-4-4-4-4-2-2-2-2-0-0-0-0-----|
E|-3-3-3-3-3-3-3-3-----------------2-2-2-2-2-2-2-2-2-2-2-2-------------|

e|-3-3-3-3-3-3-3-3-2-2-2-2-2-2-2-2-2-2-2-2-2-2-2-2-2-2-2-2-0-0-0-0-----|
B|-3-3-3-3-3-3-3-3-3-3-3-3-3-3-3-3-2-2-2-2-2-2-2-2-3-3-3-3-2-2-2-2-----|
G|-4-4-4-4-4-4-4-4-2-2-2-2-2-2-2-2-3-3-3-3-3-3-3-3-4-4-4-4-2-2-2-2-----|
D|-5-5-5-5-5-5-5-5-0-0-0-0-0-0-0-0-2-2-2-2-2-2-2-2-4-4-4-4-2-2-2-2-----|
A|-5-5-5-5-5-5-5-5-----------------4-4-4-4-4-4-4-4-2-2-2-2-0-0-0-0-----|
E|-3-3-3-3-3-3-3-3-----------------2-2-2-2-2-2-2-2-2-2-2-2-------------|

e|-3-3-3-3-3-3-3-3-2-2-2-2-2-2-2-2-2-2-2-2-2-2-2-2-2-2-2-2-0-0-0-0-----|
B|-3-3-3-3-3-3-3-3-3-3-3-3-3-3-3-3-2-2-2-2-2-2-2-2-3-3-3-3-2-2-2-2-----|
G|-4-4-4-4-4-4-4-4-2-2-2-2-2-2-2-2-2-2-2-2-2-2-2-2-4-4-4-4-2-2-2-2-----|
D|-5-5-5-5-5-5-5-5-0-0-0-0-0-0-0-0-4-4-4-4-4-4-4-4-4-4-4-4-2-2-2-2-----|
A|-5-5-5-5-5-5-5-5-----------------4-4-4-4-4-4-4-4-2-2-2-2-0-0-0-0-----|
E|-3-3-3-3-3-3-3-3-----------------2-2-2-2-2-2-2-2-2-2-2-2-------------|

e|-3-3-3-3-3-3-3-3-2-2-2-2-2-2-2-2-2-2-2-2-2-2-2-2-2-2-2-2-0-0-0-0-----|
B|-3-3-3-3-3-3-3-3-3-3-3-3-3-3-3-3-2-2-2-2-2-2-2-2-3-3-3-3-2-2-2-2-----|
G|-4-4-4-4-4-4-4-4-2-2-2-2-2-2-2-2-3-3-3-3-3-3-3-3-4-4-4-4-2-2-2-2-----|
D|-5-5-5-5-5-5-5-5-0-0-0-0-0-0-0-0-2-2-2-2-2-2-2-2-4-4-4-4-2-2-2-2-----|
A|-5-5-5-5-5-5-5-5-----------------4-4-4-4-4-4-4-4-2-2-2-2-0-0-0-0-----|
E|-3-3-3-3-3-3-3-3-----------------2-2-2-2-2-2-2-2-2-2-2-2-------------|

e|-3-3-3-3-3-3-3-3-3-3-3-3---------------------------------------------|
B|-3-3-3-3-3-3-3-3-3-3-3-3---------------------------------------------|
G|-4-4-4-4-4-4-4-4-4-4-4-4---------------------------------------------|
D|-5-5-5-5-5-5-5-5-5-5-5-5-88------------------------------------------|
A|-5-5-5-5-5-5-5-5-5-5-5-5-88------------------------------------------|
E|-3-3-3-3-3-3-3-3-3-3-3-3-66------------------------------------------|

e|-----------------------------------------------------------------|
B|-3/15~-15--15--15--15p14-14h15-14/17p15-14-15~-15--15--15--15-14-|
G|-----------------------------------------------------------------|
D|-----------------------------------------------------------------|
A|-----------------------------------------------------------------|
E|-----------------------------------------------------------------|


e|---------------------------------------------------------------------|
B|-14h15-14--15-14--12--10-10-10-10--10--7--7--10-10-10--12-12-12-12---|
G|------------------13--11-11-11--9---9--6--6---9--9--9--11-11-11-11---|
D|---------------------------------------------------------------------|
A|---------------------------------------------------------------------|
E|---------------------------------------------------------------------|

e|---------------------------------------------------------------------|
B|---------------------------------------------------------------------|
G|-9/11-11-11-9-9-9-7-7-7-7b-4---4-------------------------------------|
D|-----------------------------7---7-----------------------------------|
A|---------------------------------------------------------------------|
E|---------------------------------------------------------------------|


Guitar 1                                                             x2
e|---------------------------------------------------------------------|
B|---------------------------------------------------------------------|
G|---------6-7~---------6-7~-------------------------------------------|
D|-7-9-7-9------7-9-7-9--------------7-9~--------9-7~------------------|
A|---------------------------7-9-7-9-----7-9-7-9-----------------------|
E|---------------------------------------------------------------------|


e|---------------------------------------------------------------------|
B|---------------------------------------------------------------------|
G|---------6-7~---------6-7~~~-----------------------------------------|
D|-7-9-7-9------7-9-7-9------------------------------------------------|
A|---------------------------------------------------------------------|
E|---------------------------------------------------------------------|


Guitar 2                                                             x2
e|-----------2~------------2~------------------------------------------|
B|-2-3-2-3-5-----2-3-2-3-5------------2-3~---------3-2~----------------|
G|----------------------------2-4-2-4------2-4-2-4---------------------|
D|---------------------------------------------------------------------|
A|---------------------------------------------------------------------|
E|---------------------------------------------------------------------|


e|-----------2~------------2~~~----------------------------------------|
B|-2-3-2-3-5-----2-3-2-3-5---------------------------------------------|
G|---------------------------------------------------------------------|
D|---------------------------------------------------------------------|
A|---------------------------------------------------------------------|
E|---------------------------------------------------------------------|
            
Submit corrections


        Third Eye lessons Hard to play? Try these video lessons and learn fast Third Eye lessons
        
↑ Back to top | Tablatures and chords for acoustic guitar and electric guitar, ukulele, drums are parodies/interpretations of the original songs. You may use it for private study, scholarship, research or language learning purposes only