Home » P » Pillows »

Pillows - Beautiful Morning With You Tabs

Artists:  A B C D E F G H I J K L M N O P Q R S T U V W X Y Z # 

Beautiful Morning With You Tabs

(ver. 1) Click to play this song!
Pillows
 Rating:
3.4/5 (11 votes)
                Tuning: standard (E,A,D,G,B,e)

e--------------------------------------------------------------------
B--------------------------------------------------------------------
G-------2-2-----------------2-2-----------------2-2------------------
D--5-5--2-2--4-4--4-4--5-5--2-2--4-4--4-4--5-5--2-2--5-5-5-5-5-5-5-5-
A--5-5--0-0--4-4--4-4--5-5--0-0--4-4--4-4--5-5--0-0--3-3-3-3-3-3-3-3-
E--3-3-------2-2--2-2--3-3-------2-2--2-2--3-3-------3-3-3-3-3-3-3-3-

e----------------------------
B----------------------------
G----------------------------
D--4-5-9-7-4-5-5-5-5-5-5-5-5-   X3
A--4-5-9-7-4-5-3-3-3-3-3-3-3-
E--2-3-7-5-2-3-3-3-3-3-3-3-3-

e-----------------------------------------------------
B-----------------------------------------12^12^12^12^-
G-----------------------------------------------------
D--5-7-4-5-5-5-7-4-5-5-5-7-7-7-7-7-7-7-7--------------
A--5-7-4-5-5-5-7-4-5-5-5-7-7-7-7-7-7-7-7--------------
E--3-5-2-3-3-3-5-2-3-3-3-5-5-5-5-5-5-5-5--------------

e---------------------------------------------------------------------
B---------------------------------------------------------------------
G------------------7-7-7-7-7-7-7-7-------------------7-7-7-7-7-7-7-7--
D--5-5-5-5-5-5-5-7-7-7-7-7-7-7-7-2-2-2-2-2-2-2-7-7-7-7-7-7-7-7--------     
A--5-5-5-5-5-5-5-5-5-5-5-5-5-5-5-2-2-2-2-2-2-2-5-5-5-5-5-5-5-5--------
E--3-3-3-3-3-3-3---------------------0-0-0-0-0-0-0--------------------
This is played X5 but fades after 4

Thank The Pillows and FLCL for an awesome soundtrack
            
Submit corrections

↑ Back to top | Tablatures and chords for acoustic guitar and electric guitar, ukulele, drums are parodies/interpretations of the original songs. You may use it for private study, scholarship, research or language learning purposes only