» » »

Pillows - Spiky Seeds Tabs

Artists:  A B C D E F G H I J K L M N O P Q R S T U V W X Y Z # 

Spiky Seeds Tabs

(ver. 1) Click to play this song!
Pillows
 Rating:
4.3/5 (23 votes)

 Spiky Seeds lessons Tabs too difficult? Try these video lessons and learn fast
 
                [Intro]
e|----------------------------------------------------------------------------|
B|----------------------------------------------------------------------------|
G|----------------------------------------------------------------------------|
D|-1--2----/6--7----/11--9--7--7/14~~~~~~~~-----------------------------------|
A|-0--0-----0--0-----0---0--0--0----------------------------------------------|
E|----------------------------------------------------------------------------|

[Verse]
e|-------------------------------|--------------------------------------------|
B|-10------10------/14--12-------|----10--10----10--12--10-----14--12--10-----|
G|----12-----12------------------|-12--------12-------------12----------------|
D|-------------------------------|--------------------------------------------|
A|-------------------------------|--------------------------------------------|
E|-------------------------------|--------------------------------------------|
          Repeat as needed        Variation

[Pre-Chorus]
e|----------------------------------------------------------------------------|
B|-------------------------8~~~-----------------------------------------------|
G|----9-------9-------9----9~~~-----------------------------------------------|
D|-9~~--9--9~~--9--9~~--9--9~~~-----------------------------------------------|
A|-7~~-----7~~-----7~~-----7~~~-----------------------------------------------|
E|----------------------------------------------------------------------------|

[Chorus]
e|---------------------------------------|------------------------------------|
B|---------------------------------------|------------------------------------|
G|-7--------------------------5----------|--------------5-5-5b----------------|
D|-7-----7-----9------4---5---5---5------|--77--5-5-5-5-----------------------|
A|-5-----7-----9------4---5---3---5------|--77--5-5-5-5-----------------------|
E|-------5-----7------2---3-------3------|--55--3-3-3-3-----------------------|
             
Submit corrections


        Spiky Seeds lessons Hard to play? Try these video lessons and learn fast Spiky Seeds lessons
        
↑ Back to top | Tablatures and chords for acoustic guitar and electric guitar, ukulele, drums are parodies/interpretations of the original songs. You may use it for private study, scholarship, research or language learning purposes only