» » »

Pillows - Little Busters Tabs

Artists:  A B C D E F G H I J K L M N O P Q R S T U V W X Y Z # 

Little Busters Tabs

(ver. 2) Click to play this song!
Pillows
 Rating:
4/5 (4 votes)

 Little Busters lessons Tabs too difficult? Try these video lessons and learn fast
 
                                             Little Busters - The Pillows
                                Tabbed For Solo Guitar
Tuning:Standard


Intro
  0:01 - 0:08
e|--0--0--0--3--3--0--1--1--1--1--1--1--1--0--|
B|--1--1--0--0--0--0--1--1--1--1--1--1--1--0--|
G|--0--0--0--0--0--0--2--2--2--2--2--2--2--0--|
D|--2--2--0--0--0--0--3--3--3--3--3--3--3--0--|
A|--3--3--0--2--2--0--3--3--3--3--3--3--3--0--|
E|-----------3--3-----1--1--1--1--1--1--1--0--|x2

  0:09 - 0:12
e|------0-------0-------0-------0--0--1--|
B|------1-------1-------1-------1--0--1--|
G|----0---0-------0-----------0----0--2--|
D|--2---------0-------2---2---2----0--3--|
A|--3-------2-------0--------------0--3--|
E|--------------------------3---------1--|

Main
  0:16 - 0:18
e|--0--0--0--3--3--0--1--1--1--1--1--1--1--0--|
B|--1--1--1--0--0--0--1--1--1--1--1--1--1--0--|
G|--0--0--0--0--0--0--2--2--2--2--2--2--2--0--|
D|--2--2--2--0--0--0--3--3--3--3--3--3--3--0--|
A|--3--3--3--2--2--0--3--3--3--3--3--3--3--0--|
E|-----------3--3-----1--1--1--1--1--1--1--0--|
    With the kids sing out the future.

  0:19 - 0:22
e|--0--0--0--3--3--0--1--1--1--1--1--1--1--0--|
B|--1--1--1--0--0--0--1--1--1--1--1--1--1--0--|
G|--0--0--0--0--0--0--2--2--2--2--2--2--2--0--|
D|--2--2--2--0--0--0--3--3--3--3--3--3--3--0--|
A|--3--3--3--2--2--0--3--3--3--3--3--3--3--0--|
E|-----------3--3-----1--1--1--1--1--1--1--0--|
    Maybe, kids don't need the masters.

  0:23 - 0:29
e|------0-------0-------0-------0--0--1--1--1--1--1--1--1--1--1--1--1--1--1--|
B|------1-------1-------1-------1--0--1--1--1--1--1--1--1--1--1--1--1--1--1--|
G|----0---0-------0-----------0----0--2--2--2--2--2--2--2--2--2--2--2--2--2--|
D|--2---------0-------2---2---2----0--3--3--3--3--3--3--3--3--3--3--3--3--3--|
A|--3-------2-------0--------------0--3--3--3--3--3--3--3--3--3--3--3--3--3--|
E|--------------------------3---------1--1--1--1--1--1--1--1--1--1--1--1--1--|
    Just waiting for the little Busters. (oh yeah...yeayea yeah!)

  0:30 - 0:33
e|--0--0--0--3--3--0--1--1--1--1--1--1--1--0--|
B|--1--1--1--0--0--0--1--1--1--1--1--1--1--0--|
G|--0--0--0--0--0--0--2--2--2--2--2--2--2--0--|
D|--2--2--2--0--0--0--3--3--3--3--3--3--3--0--|
A|--3--3--3--2--2--0--3--3--3--3--3--3--3--0--|
E|-----------3--3-----1--1--1--1--1--1--1--0--|
    With the kids sing out the future.

  0:34 - 0:37
e|--0--0--0--3--3--0--1--1--1--1--1--1--1--0--|
B|--1--1--1--0--0--0--1--1--1--1--1--1--1--0--|
G|--0--0--0--0--0--0--2--2--2--2--2--2--2--0--|
D|--2--2--2--0--0--0--3--3--3--3--3--3--3--0--|
A|--3--3--3--2--2--0--3--3--3--3--3--3--3--0--|
E|-----------3--3-----1--1--1--1--1--1--1--0--|
    Maybe, kids don't need the masters.

  0:38 - 0:45
e|------0-------0-------0-------0--0--1--1--1--1--1--1--1--1--1--1--1--1--1--|
B|------1-------1-------1-------1--0--1--1--1--1--1--1--1--1--1--1--1--1--1--|
G|----0---0-------0-----------0----0--2--2--2--2--2--2--2--2--2--2--2--2--2--|
D|--2---------0-------2---2---2----0--3--3--3--3--3--3--3--3--3--3--3--3--3--|
A|--3-------2-------0--------------0--3--3--3--3--3--3--3--3--3--3--3--3--3--|
E|--------------------------3---------1--1--1--1--1--1--1--1--1--1--1--1--1--|
    Just waiting for the little Busters. (oh yeah...yeayea yeah!)

Bridge 1
  0:46 - 0:49
e|--3--3--3--3--3--0--0--0--0--0--0--0--0--0--|
B|--0--0--0--0--0--0--0--1--1--1--1--1--0--0--|
G|--0--0--0--0--0--0--0--2--2--2--2--2--0--0--|
D|--0--0--0--0--0--0--0--2--2--2--2--2--0--0--|
A|--2--2--2--2--2--0--0--0--0--0--0--0--0--0--|
E|--3--3--3--3--3-----------------------------|
    Iro asanai KIDDONAPPU MYUUJIKKU

  0:50 - 0:53
e|--1--1--1--1--0--0--0--0--0--0--0--0--0--0--|
B|--1--1--1--1--0--1--1--1--1--1--1--1--0--0--|
G|--2--2--2--2--0--0--0--0--0--0--0--0--0--0--|
D|--3--3--3--3--0--2--2--2--2--2--2--2--0--0--|
A|--3--3--3--3--0--3--3--3--3--3--3--3--0--0--|
E|--1--1--1--1--------------------------------|
    Te to te ga sh*tte iru

  0:54 - 0:56
e|--3--3--3--3--3--0--0--0--0--0--0--0--0--0--|
B|--3--3--3--3--3--0--0--1--1--1--1--1--0--0--|
G|--0--0--0--0--0--0--0--2--2--2--2--2--0--0--|
D|--0--0--0--0--0--0--0--2--2--2--2--2--0--0--|
A|--2--2--2--2--2--0--0--0--0--0--0--0--0--0--|
E|--3--3--3--3--3-----------------------------|
   Onaji DOA o NOKKU sh*tai

  0:57 - 1:02
e|--1--1--1--1--1--1--1--1--1--1--1--1--1--1--0--0--3--3--1--1--3--3--3--3--3--|
B|--1--1--1--1--1--1--1--1--1--1--1--1--1--1--0--0--3--3--1--1--3--3--3--3--3--|
G|--2--2--2--2--2--2--2--2--2--2--2--2--2--2--0--0--4--4--2--2--4--4--4--4--4--|
D|--3--3--3--3--3--3--3--3--3--3--3--3--3--3--0--0--5--5--3--3--5--5--5--5--5--|
A|--3--3--3--3--3--3--3--3--3--3--3--3--3--3--0--0--5--5--3--3--5--5--5--5--5--|
E|--1--1--1--1--1--1--1--1--1--1--1--1--1--1--------3--3--1--1--3--3--3--3--3--|
   Kono koe ga kikoe tara

  1:02 - 1:07
e|--1--1--3--3--3--3--3--3--3--3--3--3--3--3--3--3--|
B|--1--1--3--3--3--3--3--3--3--3--3--3--3--3--3--3--|
G|--2--2--4--4--4--4--4--4--4--4--4--4--4--4--4--4--|
D|--3--3--5--5--5--5--5--5--5--5--5--5--5--5--5--5--|
A|--3--3--5--5--5--5--5--5--5--5--5--5--5--5--5--5--|
E|--1--1--3--3--3--3--3--3--3--3--3--3--3--3--3--3--|
    tobi dash*te

Back to Main
  1:08 - 1:10
e|--0--0--0--3--3--0--1--1--1--1--1--1--1--0--|
B|--1--1--1--0--0--0--1--1--1--1--1--1--1--0--|
G|--0--0--0--0--0--0--2--2--2--2--2--2--2--0--|
D|--2--2--2--0--0--0--3--3--3--3--3--3--3--0--|
A|--3--3--3--2--2--0--3--3--3--3--3--3--3--0--|
E|-----------3--3-----1--1--1--1--1--1--1--0--|
    With the kids sing out the future.

  1:11 - 1:14
e|--0--0--0--3--3--0--1--1--1--1--1--1--1--0--|
B|--1--1--1--0--0--0--1--1--1--1--1--1--1--0--|
G|--0--0--0--0--0--0--2--2--2--2--2--2--2--0--|
D|--2--2--2--0--0--0--3--3--3--3--3--3--3--0--|
A|--3--3--3--2--2--0--3--3--3--3--3--3--3--0--|
E|-----------3--3-----1--1--1--1--1--1--1--0--|
    Maybe, kids don't need the masters.

  1:15 - 1:22
e|------0-------0-------0-------0--0--1--1--1--1--1--1--1--1--1--1--1--1--1--|
B|------1-------1-------1-------1--0--1--1--1--1--1--1--1--1--1--1--1--1--1--|
G|----0---0-------0-----------0----0--2--2--2--2--2--2--2--2--2--2--2--2--2--|
D|--2---------0-------2---2---2----0--3--3--3--3--3--3--3--3--3--3--3--3--3--|
A|--3-------2-------0--------------0--3--3--3--3--3--3--3--3--3--3--3--3--3--|
E|--------------------------3---------1--1--1--1--1--1--1--1--1--1--1--1--1--|
    Just waiting for the little Busters. (oh yeah...yeayea yeah!)

Solo
  1:23 - 1:34
e|-----------------------------------------------/10--7--7/--12--|
B|--------------------------------------10--7--7-----------------|
G|--7b---5---5---------------------------------------------------|
D|-----7---7---7------------5---5--7--7--------------------------|
A|---------------0--3--5--7---7----------------------------------|
E|---------------------------------------------------------------|

  1:35  - 1:40
e|------------------------------/12~~--15~------------------------|
B|----------------------8---8-------------------------------------|
G|----5-7p5---5-7-5-7/9---9---9-----------------------------------|
D|--7-------7-----------------------------------------------------|
A|----------------------------------------------------------------|
E|----------------------------------------------------------------|

Back to Main
  1:41 - 1:45
e|--0--0--0--3--3--0--1--1--1--1--1--1--1--0--|
B|--1--1--1--0--0--0--1--1--1--1--1--1--1--0--|
G|--0--0--0--0--0--0--2--2--2--2--2--2--2--0--|
D|--2--2--2--0--0--0--3--3--3--3--3--3--3--0--|
A|--3--3--3--2--2--0--3--3--3--3--3--3--3--0--|
E|-----------3--3-----1--1--1--1--1--1--1--0--|
    With the kids sing out the future.

  1:45 - 1:48
e|--0--0--0--3--3--0--1--1--1--1--1--1--1--0--|
B|--1--1--1--0--0--0--1--1--1--1--1--1--1--0--|
G|--0--0--0--0--0--0--2--2--2--2--2--2--2--0--|
D|--2--2--2--0--0--0--3--3--3--3--3--3--3--0--|
A|--3--3--3--2--2--0--3--3--3--3--3--3--3--0--|
E|-----------3--3-----1--1--1--1--1--1--1--0--|
    Maybe, kids don't need the masters.

  1:49 - 1:55
e|------0-------0-------0-------0--0--1--1--1--1--1--1--1--1--1--1--1--1--1--|
B|------1-------1-------1-------1--0--1--1--1--1--1--1--1--1--1--1--1--1--1--|
G|----0---0-------0-----------0----0--2--2--2--2--2--2--2--2--2--2--2--2--2--|
D|--2---------0-------2---2---2----0--3--3--3--3--3--3--3--3--3--3--3--3--3--|
A|--3-------2-------0--------------0--3--3--3--3--3--3--3--3--3--3--3--3--3--|
E|--------------------------3---------1--1--1--1--1--1--1--1--1--1--1--1--1--|
    Just waiting for the little Busters. (oh yeah...yeayea yeah!)

  1:56 - 2:00
e|--0--0--0--3--3--0--1--1--1--1--1--1--1--0--|
B|--1--1--1--0--0--0--1--1--1--1--1--1--1--0--|
G|--0--0--0--0--0--0--2--2--2--2--2--2--2--0--|
D|--2--2--2--0--0--0--3--3--3--3--3--3--3--0--|
A|--3--3--3--2--2--0--3--3--3--3--3--3--3--0--|
E|-----------3--3-----1--1--1--1--1--1--1--0--|
    With the kids sing out the future.

  2:01 - 2:03
e|--0--0--0--3--3--0--1--1--1--1--1--1--1--0--|
B|--1--1--1--0--0--0--1--1--1--1--1--1--1--0--|
G|--0--0--0--0--0--0--2--2--2--2--2--2--2--0--|
D|--2--2--2--0--0--0--3--3--3--3--3--3--3--0--|
A|--3--3--3--2--2--0--3--3--3--3--3--3--3--0--|
E|-----------3--3-----1--1--1--1--1--1--1--0--|
    Maybe, kids don't need the masters.

  2:04 - 2:11
e|------0-------0-------0-------0--0--1--1--1--1--1--1--1--1--1--1--1--1--1--|
B|------1-------1-------1-------1--0--1--1--1--1--1--1--1--1--1--1--1--1--1--|
G|----0---0-------0-----------0----0--2--2--2--2--2--2--2--2--2--2--2--2--2--|
D|--2---------0-------2---2---2----0--3--3--3--3--3--3--3--3--3--3--3--3--3--|
A|--3-------2-------0--------------0--3--3--3--3--3--3--3--3--3--3--3--3--3--|
E|--------------------------3---------1--1--1--1--1--1--1--1--1--1--1--1--1--|
    Just waiting for the little Busters. (oh yeah...yeayea yeah!)

Bridge 2
  2:12 - 2:15
e|--3--3--3--3--3--0--0--0--0--0--0--0--0--0--|
B|--0--0--0--0--0--0--0--1--1--1--1--1--0--0--|
G|--0--0--0--0--0--0--0--2--2--2--2--2--0--0--|
D|--0--0--0--0--0--0--0--2--2--2--2--2--0--0--|
A|--2--2--2--2--2--0--0--0--0--0--0--0--0--0--|
E|--3--3--3--3--3-----------------------------|
    Hazure yasui TIIN EIJI-GIA

  2:16 - 2:19
e|--1--1--1--1--0--0--0--0--0--0--0--0--0--0--|
B|--1--1--1--1--0--1--1--1--1--1--1--1--0--0--|
G|--2--2--2--2--0--0--0--0--0--0--0--0--0--0--|
D|--3--3--3--3--0--2--2--2--2--2--2--2--0--0--|
A|--3--3--3--3--0--3--3--3--3--3--3--3--0--0--|
E|--1--1--1--1--------------------------------|
    Korogaru hihi mo

  2:20 - 2:25
e|--3--3--3--3--3--0--0--0--0--0--0--0--0--0--|
B|--3--3--3--3--3--0--0--1--1--1--1--1--0--0--|
G|--0--0--0--0--0--0--0--2--2--2--2--2--0--0--|
D|--0--0--0--0--0--0--0--2--2--2--2--2--0--0--|
A|--2--2--2--2--2--0--0--0--0--0--0--0--0--0--|
E|--3--3--3--3--3-----------------------------|
   Sora to umi to daichi wa tada, aruga mama

  2:26 - 2:29
e|--1--1--1--1--1--1--1--1--1--1--1--1--1--1--0--0--3--3--1--1--3--3--3--3--3--|
B|--1--1--1--1--1--1--1--1--1--1--1--1--1--1--0--0--3--3--1--1--3--3--3--3--3--|
G|--2--2--2--2--2--2--2--2--2--2--2--2--2--2--0--0--4--4--2--2--4--4--4--4--4--|
D|--3--3--3--3--3--3--3--3--3--3--3--3--3--3--0--0--5--5--3--3--5--5--5--5--5--|
A|--3--3--3--3--3--3--3--3--3--3--3--3--3--3--0--0--5--5--3--3--5--5--5--5--5--|
E|--1--1--1--1--1--1--1--1--1--1--1--1--1--1--------3--3--1--1--3--3--3--3--3--|
    Itsumo demo

  2:30 - 2:33
e|--1--1--3--3--3--3--3--3--3--3--3--3--3--3--3--3--|
B|--1--1--3--3--3--3--3--3--3--3--3--3--3--3--3--3--|
G|--2--2--4--4--4--4--4--4--4--4--4--4--4--4--4--4--|
D|--3--3--5--5--5--5--5--5--5--5--5--5--5--5--5--5--|
A|--3--3--5--5--5--5--5--5--5--5--5--5--5--5--5--5--|
E|--1--1--3--3--3--3--3--3--3--3--3--3--3--3--3--3--|
    nige naize

Back to Main
  2:34 - 2:37
e|--0--0--0--3--3--0--1--1--1--1--1--1--1--0--|
B|--1--1--1--0--0--0--1--1--1--1--1--1--1--0--|
G|--0--0--0--0--0--0--2--2--2--2--2--2--2--0--|
D|--2--2--2--0--0--0--3--3--3--3--3--3--3--0--|
A|--3--3--3--2--2--0--3--3--3--3--3--3--3--0--|
E|-----------3--3-----1--1--1--1--1--1--1--0--|
    With the kids sing out the future.

  2:38 - 2:40
e|--0--0--0--3--3--0--1--1--1--1--1--1--1--0--|
B|--1--1--1--0--0--0--1--1--1--1--1--1--1--0--|
G|--0--0--0--0--0--0--2--2--2--2--2--2--2--0--|
D|--2--2--2--0--0--0--3--3--3--3--3--3--3--0--|
A|--3--3--3--2--2--0--3--3--3--3--3--3--3--0--|
E|-----------3--3-----1--1--1--1--1--1--1--0--|
    Maybe, kids don't need the masters.

  2:41 - 2:48
e|------0-------0-------0-------0--0--1--1--1--1--1--1--1--1--1--1--1--1--1--|
B|------1-------1-------1-------1--0--1--1--1--1--1--1--1--1--1--1--1--1--1--|
G|----0---0-------0-----------0----0--2--2--2--2--2--2--2--2--2--2--2--2--2--|
D|--2---------0-------2---2---2----0--3--3--3--3--3--3--3--3--3--3--3--3--3--|
A|--3-------2-------0--------------0--3--3--3--3--3--3--3--3--3--3--3--3--3--|
E|--------------------------3---------1--1--1--1--1--1--1--1--1--1--1--1--1--|
    Just waiting for the little Busters. (oh yeah...yeayea yeah!)

Bridge 3
  2:49 - 2:51
e|--0--0--0--3--3--0--1--1--1--1--1--1--1--0--|
B|--1--1--1--0--0--0--1--1--1--1--1--1--1--0--|
G|--0--0--0--0--0--0--2--2--2--2--2--2--2--0--|
D|--2--2--2--0--0--0--3--3--3--3--3--3--3--0--|
A|--3--3--3--2--2--0--3--3--3--3--3--3--3--0--|
E|-----------3--3-----1--1--1--1--1--1--1--0--|
    With the kids sing out the future.

  2:52 - 2:55
e|--0--0--0--3--3--0--1--1--1--1--1--1--1--0--|
B|--1--1--1--0--0--0--1--1--1--1--1--1--1--0--|
G|--0--0--0--0--0--0--2--2--2--2--2--2--2--0--|
D|--2--2--2--0--0--0--3--3--3--3--3--3--3--0--|
A|--3--3--3--2--2--0--3--3--3--3--3--3--3--0--|
E|-----------3--3-----1--1--1--1--1--1--1--0--|
    Maybe, kids don't need the masters.

  2:56 - 2:59
e|--0--0--0--3--3--0--1--1--1--1--1--1--1--0--|
B|--1--1--1--0--0--0--1--1--1--1--1--1--1--0--|
G|--0--0--0--0--0--0--2--2--2--2--2--2--2--0--|
D|--2--2--2--0--0--0--3--3--3--3--3--3--3--0--|
A|--3--3--3--2--2--0--3--3--3--3--3--3--3--0--|
E|-----------3--3-----1--1--1--1--1--1--1--0--|
    With the kids sing out the future.

  3:00 - 3:03
e|--0--0--0--3--3--0--1--1--1--1--1--1--1--0--|
B|--1--1--1--0--0--0--1--1--1--1--1--1--1--0--|
G|--0--0--0--0--0--0--2--2--2--2--2--2--2--0--|
D|--2--2--2--0--0--0--3--3--3--3--3--3--3--0--|
A|--3--3--3--2--2--0--3--3--3--3--3--3--3--0--|
E|-----------3--3-----1--1--1--1--1--1--1--0--|
    Maybe, kids don't need the masters.

 3:04 - 3:07
e|--0--0--0--3--3--0--1--1--1--1--1--1--1--0--|
B|--1--1--1--0--0--0--1--1--1--1--1--1--1--0--|
G|--0--0--0--0--0--0--2--2--2--2--2--2--2--0--|
D|--2--2--2--0--0--0--3--3--3--3--3--3--3--0--|
A|--3--3--3--2--2--0--3--3--3--3--3--3--3--0--|
E|-----------3--3-----1--1--1--1--1--1--1--0--|
    With the kids sing out the future.

  3:07 - 3:10
e|--0--0--0--3--3--0--1--1--1--1--1--1--1--0--|
B|--1--1--1--0--0--0--1--1--1--1--1--1--1--0--|
G|--0--0--0--0--0--0--2--2--2--2--2--2--2--0--|
D|--2--2--2--0--0--0--3--3--3--3--3--3--3--0--|
A|--3--3--3--2--2--0--3--3--3--3--3--3--3--0--|
E|-----------3--3-----1--1--1--1--1--1--1--0--|
    Maybe, kids don't need the masters.

  3:11 - 3:19
e|------0-------0-------0-------0--0--1--1--1--1--1--1--1--1--1--1--1--1--1--|
B|------1-------1-------1-------1--0--1--1--1--1--1--1--1--1--1--1--1--1--1--|
G|----0---0-------0-----------0----0--2--2--2--2--2--2--2--2--2--2--2--2--2--|
D|--2---------0-------2---2---2----0--3--3--3--3--3--3--3--3--3--3--3--3--3--|
A|--3-------2-------0--------------0--3--3--3--3--3--3--3--3--3--3--3--3--3--|
E|--------------------------3---------1--1--1--1--1--1--1--1--1--1--1--1--1--|
    Just waiting for the little Busters. (oh yeah...yeayea yeah!)

  3:20 - 3:23
e|--0--0--0--3--3--0--1--1--1--1--1--1--1--0--|
B|--1--1--1--0--0--0--1--1--1--1--1--1--1--0--|
G|--0--0--0--0--0--0--2--2--2--2--2--2--2--0--|
D|--2--2--2--0--0--0--3--3--3--3--3--3--3--0--|
A|--3--3--3--2--2--0--3--3--3--3--3--3--3--0--|
E|-----------3--3-----1--1--1--1--1--1--1--0--|
    With the kids sing out the future.

  3:24 - 3:27
e|--0--0--0--3--3--0--1--1--1--1--1--1--1--0--|
B|--1--1--1--0--0--0--1--1--1--1--1--1--1--0--|
G|--0--0--0--0--0--0--2--2--2--2--2--2--2--0--|
D|--2--2--2--0--0--0--3--3--3--3--3--3--3--0--|
A|--3--3--3--2--2--0--3--3--3--3--3--3--3--0--|
E|-----------3--3-----1--1--1--1--1--1--1--0--|
    Maybe, kids don't need the masters.

  3:28 - 3:36
e|------0-------0-------0-------0--0--1--1--1--1--1--1--1--1--1--1--1--1--1--|
B|------1-------1-------1-------1--0--1--1--1--1--1--1--1--1--1--1--1--1--1--|
G|----0---0-------0-----------0----0--2--2--2--2--2--2--2--2--2--2--2--2--2--|
D|--2---------0-------2---2---2----0--3--3--3--3--3--3--3--3--3--3--3--3--3--|
A|--3-------2-------0--------------0--3--3--3--3--3--3--3--3--3--3--3--3--3--|
E|--------------------------3---------1--1--1--1--1--1--1--1--1--1--1--1--1--|
    Just waiting for the little Busters. (oh yeah...yeayea yeah!)
            
Submit corrections


        Little Busters lessons Hard to play? Try these video lessons and learn fast Little Busters lessons
        
↑ Back to top | Tablatures and chords for acoustic guitar and electric guitar, ukulele, drums are parodies/interpretations of the original songs. You may use it for private study, scholarship, research or language learning purposes only