Home » P » Pillows »

Pillows - Hybrid Rainbow Bass

Artists:  A B C D E F G H I J K L M N O P Q R S T U V W X Y Z # 

Hybrid Rainbow Bass

(ver. 2) Click to play this song!
Pillows
 Rating:
4/5 (4 votes)
                The Pillows
“Hybrid Rainbow”

Just the e and a string are only used:

Intro:
A|-----------------3-3-3-3-3-3-3-3-5-5-5-5-3-3-3-3----------------|
E|--3-3-3-3-3-3-3-3-------------------------------3-3-3-3-3-3-3-3-|      

A|----------------3-3-3-3-3-3-3-3-5-5-5-5-5-5-5-5----------------|
E|-3-3-3-3-3-3-3-3-------------------------------3-3-3-3-3-3-3-3-|   

Verse:
A|----------------3-3-3-3-3-3-3-3-5-5-5-5-5-5-5-5----------------|
E|-3-3-3-3-3-3-3-3-------------------------------3-3-3-3-3-3-3-3-|    (×4)

Pre-Chorus:
A|-3-3-3-3-3-3-3-3---------------0-0-0-0-0-0-0-0-0-0-0-0-0-0-0-0-3-3-3-3-3-3-3-3-| 
E|----------------3-3-3-3-3-3-3-3------------------------------------------------| 

A|----------------5-5-5-5-5-5-5-5-5-5-5-5-5-5-5-5-|
E|-3-3-3-3-3-3-3-3--------------------------------|

Chorus:
A|-3-3-3-3-3-3-3-3---------------0-0-0-0-0-0-0-0---------------3-3-3-3-3-3-3-3-| 
E|----------------3-3-3-3-3-3-3-3---------------2-2-2-2-2-2-2-2----------------|

A|------------------5-5-5-5-5-5-5-5-5-3-3-3-3-3-3-3-3-|
E|-3-3-3-3-3-3-3-3-3----------------------------------|

Pre-Verse: 
A|----------------3-3-3-3-3-3-3-3-5-5-5-5-5-5-5-5----------------| 
E|-3-3-3-3-3-3-3-3-------------------------------3-3-3-3-3-3-3-3-|    (×2)

Verse
Pre-Chorus
Chorus

Bridge:
A|-3-3-3-3-3-3-3-3----------------|
E|----------------3-3-3-3-3-3-3-3-|    (×4)

Chorus:
A|-3-3-3-3-3-3-3-3---------------0-0-0-0-0-0-0-0----------------| 
E|----------------3-3-3-3-3-3-3-3---------------2-2-2-2-2-2-2-2-|    (×3)

A|-3-3-3-3-3-3-3-3---------------5-5-5-5-5-5-5-5-5-3-3-3-3-3-3-3-3----------------|
E|----------------3-3-3-3-3-3-3-3---------------------------------3-3-3-3-3-3-3-3-|
            
Submit corrections

↑ Back to top | Tablatures and chords for acoustic guitar and electric guitar, ukulele, drums are parodies/interpretations of the original songs. You may use it for private study, scholarship, research or language learning purposes only