» » »

Pillows - Carnival Tabs

Artists:  A B C D E F G H I J K L M N O P Q R S T U V W X Y Z # 

Carnival Tabs

(ver. 3) Click to play this song!
Pillows
 Rating:
4/5 (4 votes)

 Carnival lessons Tabs too difficult? Try these video lessons and learn fast
 
                ======================
the pillows - Carnival
======================
Sounds very good when played along with the song.
First, you have the tab, then the structure.
Start playing by the tab, and when you get to the
end, follow the structure indicated.
Hope you like the tab!


{Intro}
e|--------------------|---------|---------|------------|
B|--------------------|---------|---------|------------|
G|--------------------|---------|---------|------------| x4
D|--------------------|---------|---------|--x-x--x-x--|
A|-7-7-7-7---5--8--10-|---------|---------|--x-x--x-x--|
E|--------------------|-5--8--7-|-5-3-5-3-|--x-x--x-x--|
                                           (pickscr*pe)

{Verse}
e|-----------------|-----------------|-----------------|-----------------|
B|-----------------|-----------------|-----------------|-----------------|
G|-5-5-5-5-5-5-5-5-|-----------------|-7-7-7-7-7-7-7-7-|-5-5-5-5-5-5-5-5-| x3
D|-5-5-5-5-5-5-5-5-|-5-5-5-5-5-5-5-5-|-7-7-7-7-7-7-7-7-|-5-5-5-5-5-5-5-5-|
A|-3-3-3-3-3-3-3-3-|-5-5-5-5-5-5-5-5-|-5-5-5-5-5-5-5-5-|-3-3-3-3-3-3-3-3-|
E|-----------------|-3-3-3-3-3-3-3-3-|-----------------|-----------------|


e|-----------------|-----------------|-----------------|-----------------|
B|-----------------|-----------------|-----------------|-----------------|
G|-5-5-5-5-5-5-5-5-|-----------------|-7-7-7-7-7-7-7-7-|-----------------|
D|-5-5-5-5-5-5-5-5-|-5-5-5-5-5-5-5-5-|-7-7-7-7-7-7-7-7-|-5-5-5-5-5-5-5-5-|
A|-3-3-3-3-3-3-3-3-|-5-5-5-5-5-5-5-5-|-5-5-5-5-5-5-5-5-|-5-5-5-5-5-5-5-5-|
E|-----------------|-3-3-3-3-3-3-3-3-|-----------------|-3-3-3-3-3-3-3-3-|


{Pre-Chorus}
e|---------|---------|---------|---------|----------|-----------------|
B|---------|---------|---------|---------|----------|-----------------|
G|---------|-5-5-5-5-|-4-4-4-4-|-7-7-7-7-|-5-5-5--4-|-----------------|
D|-7-7-7-7-|-5-5-5-5-|-4-4-4-4-|-7-7-7-7-|-5-5-5--4-|-7-7-7-7-7-7-7-7-|
A|-7-7-7-7-|-3-3-3-3-|-2-2-2-2-|-5-5-5-5-|-3-3-3--2-|-7-7-7-7-7-7-7-7-|
E|-5-5-5-5-|---------|---------|---------|----------|-5-5-5-5-5-5-5-5-|
  

{Chorus}
e|-------|---------|-----|    |-------|
B|-------|---------|-----|    |-------|
G|-5-5-5-|---------|-4\5-| x2 |-5-5-5-|
D|-5-5-5-|-5-5-5-5-|-4\5-|    |-5-5-5-|
A|-3-3-3-|-5-5-5-5-|-2\3-|    |-3-3-3-|
E|-------|-3-3-3-3-|-----|    |-------|


e|-----------------|-----------------|--------------------|
B|-----------------|-----------------|--------------------|
G|-----------------|-----------------|--------------------|
D|-2-2-2-2-2-2-2-2-|-3-3-3-3-3-3-3-3-|-7-7-7-7-7-7-7-7~~~~|
A|-2-2-2-2-2-2-2-2-|-3-3-3-3-3-3-3-3-|-7-7-7-7-7-7-7-7~~~~|
E|-0-0-0-0-0-0-0-0-|-1-1-1-1-1-1-1-1-|-5-5-5-5-5-5-5-5~~~~|


THEN PLAY   {Verse}, but repeat the first part x5 (instead of x3);
NEXT        {Pre-Chorus};
THEN        {Chorus};
THEN        {Verse}, but repeat the first part x4 (instead of x3 and x5);
THEN        {Pre-Chorus} x2;
THEN        {Chorus}
FINISH WITH {Intro} x2, end abruptly (in |-5-3-5-3-|), don't pickscr*pe.
            
Submit corrections


        Carnival lessons Hard to play? Try these video lessons and learn fast Carnival lessons
        
↑ Back to top | Tablatures and chords for acoustic guitar and electric guitar, ukulele, drums are parodies/interpretations of the original songs. You may use it for private study, scholarship, research or language learning purposes only