Home » P » Philipp Poisel »

Philipp Poisel - Liebe Meines Lebens Tabs

Artists:  A B C D E F G H I J K L M N O P Q R S T U V W X Y Z # 

Liebe Meines Lebens Tabs

(ver. 1) Click to play this song!
Philipp Poisel
(feel time by yourself)
Intro 2x
e -------------------------------------------------------------------
h -----0-------0-------0-------0-------0-------0-------0-------0-----
g -------------------------1-------2-------2-------2-----------------
d -2-2---2-2-2---2-2-2---2---2---2---2---2---2---2---2---2-4-2---2---
a -------------------------------------------------------------------
e -0-----------------------------------------------------------------

Vers 4x
e -------------------------------------------------------------------
h -----0-------0-------0-------0-------0-------0-------0-------0-----
g ---------1-------2-------2-------2---------------------------------
d -2-2---2---2---2---2---2---2---2---2---2-4-2---2-2-2---2-2-2---2---
a -------------------------------------------------------------------
e -0-----------------------------------------------------------------

Pre-Chorsus 2x
e -------------------------------------------------------------------
h -----0-------0-------0-------0-------0-------0-------0-------0-----
g -----------------2-------2-----------------------------------------
d -2-2---2-2-2---2---2---2---2---2-4-2---2-4-2---2-2-2---2-2-2---2---
a -------------------------------------------------------------------
e -------------------------------------------------------------------

Refrain
e -------------------------------------------------------------------
h -----0-------0-------0-------0-------0-------0-------0-------0-----
g -----------------2-------2-------2-------2-------------------------
d -2-2---2-2-2---2---2---2---2---2---2---2---2---2-2-2---2-2-2---2---
a -----------------0-------------------------------------------------
e -0-----------------------------------------------0-----------------

e ---------------------------------------------------------0---------
h -----0-------0-------0-------0-------0-------0-------0---------0---
g ---------1-------2-------2-----------------------------------------
d -2-2---2---2---2---2---2---2---2-4-2---2-4-2---2-2-2---2-----2-----
a -----------------0-----------------------------------------4-------
e ---------4-----------------------2---------------0-----------------

e ---------2---------------0---------------2---------------0---------
h -----0---------0-----0---------0-----0---------0-----0---------0---
g -------------------------------------------------------------------
d -2-2---2-----2---2-2---2-----2---2-2---2-----2---2-2---2-----2-----
a -----------4---------------4-----0---------4---------------4-------
e -0---------------2-------------------------------0-----------------

e ---------2---------------0---------------2--------
h -----0---------0-----0---------0-----0---------0--
g --------------------------------------------------
d -2-2---2-----2---2-2---2-----2---2-2---2-----2----
a -----------4---------------4-----0---------4------
e -0---------------2--------------------------------
            
Submit corrections

↑ Back to top | Tablatures and chords for acoustic guitar and electric guitar, ukulele, drums are parodies/interpretations of the original songs. You may use it for private study, scholarship, research or language learning purposes only