Home » P » Philipp Poisel »

Philipp Poisel - Zunde Alle Feuer Tabs

Artists:  A B C D E F G H I J K L M N O P Q R S T U V W X Y Z # 

Zunde Alle Feuer Tabs

(ver. 1) Click to play this song!
Philipp Poisel
-------------------------------------------------------------------------------
                             Zuende Alle Feuer - Philipp Poisel
-------------------------------------------------------------------------------


Tuning: Standarad

Riff:
e|-------------------------|-------------------------|
B|-------------------------|-------------------------|
G|----6-----6-----6-----6--|----6-----6-----6-----6--|
D|-7-----7-----7-----7-----|-7-----7-----7-----7-----|
A|-------------------------|-------------------------|
E|-------------------------|-------------------------|

e|-------------------------|-------------------------|
B|-------------------------|-------------------------|
G|----7-----7-----7-----7--|----7-----7-----7-----7--|
D|-7-----7-----7-----7-----|-7-----7-----7-----7-----|
A|-------------------------|-------------------------|
E|-------------------------|-------------------------|

e|-------------------------|-------------------------|
B|-------------------------|-------------------------|
G|----6-----6-----6-----6--|----6-----6-----6-----6--|
D|-7-----7-----7-----7-----|-7-----7-----7-----7-----|
A|-------------------------|-------------------------|
E|-------------------------|-------------------------|

e|-------------------------|-------------------------|
B|-------------------------|----7-----7-----5-----5--|
G|----7-----7-----7-----7--|-------------------------|
D|-7-----7-----7-----7-----|-7-----7-----7-----7-----|
A|-------------------------|-------------------------|
E|-------------------------|-------------------------|

************************************

| /   slide up
| \   slide down
| h   hammer-on
| p   pull-off
| ~   vibrato
| +   harmonic
| x   Mute note
| b   Bend
| pb  Pre-bend
| br  Bend release
| pbr Pre-bend release
| brb Bend release bend

************************************
As far as i noticed just two Chords: Barree A and Barree D
So:

  A    D
e 5    5
B 5    7
G 6    7
D 7    7
A 7    5
E 5    x



Bleib hier bis der Mond aufgeht, 
die Welt die Augen schliesst. 
Bleib hier bis die Nacht anbricht, 
der Tag am Ende steht. 

Ich weis nicht, 
wie weit es ist. 
Wohin du gehst. 
Auf wen du stehst. 
Ich fliege nicht. 
Ich liebe dich 1 2 3! 

Sonne kommt 
am ende doch. 
Und weisst du nicht 
ich liebe dich. 
Und alles was am Ende noch so bleibt 

Zuende alle Feuer. 
Plauder auf mich ein. 
Geh so weit du kannst 
und wenn das Ende kommt. 
Zeig mir dass ich da bin. 
Schrei so laut du kannst. 
Leg deine Hand auf mein Herz! 

Ich weiss nicht, 
wie weit es ist. 
Wohin du gehst. 
Auf wen du stehst. 
Ich fliege nicht. 
Ich liebe dich 1 2 3! 

Sonne kommt 
am Ende doch. 
Und weisst du nicht 
ich liebe dich. 
Und alles was am Ende noch so bleibt 

Zuende alle Feuer. 
Plauder auf mich ein. 
Zeig mir dass ich lebe, 
wenn du wiederkommst. 
Kuess mich von allen Seiten. 
Plauder auf mich ein. 
Alles was du willst, 
Alles was ich weiss. 

Bleib hier bis die Nacht anbricht, 
die Nacht am Ende steht. 
Bleib hier bis der Mond aufgeht, 
die Welt die Augen schliesst.
            
Submit corrections

↑ Back to top | Tablatures and chords for acoustic guitar and electric guitar, ukulele, drums are parodies/interpretations of the original songs. You may use it for private study, scholarship, research or language learning purposes only