Home » P » Philipp Poisel »

Philipp Poisel - Eiserner Steg Tabs

Artists:  A B C D E F G H I J K L M N O P Q R S T U V W X Y Z # 

Eiserner Steg Tabs

(ver. 1) Click to play this song!
Philipp Poisel
C#m [046600]
Asus2 [00220]
E [012200]

Capo 2

Main Riff:

 Asus2    E                          Asus2    E
E-------0-------0-|-------0-------0-|-------0-------0-|-------0-------0-|
B-----0-------0---|-----0-------0---|-----0-------0---|-----0-------0---|
G---1-------1-----|---1-------1-----|---1-------1-----|---1-------1-----|
D-----------------|-----------------|-----------------|-----------------|
A-0---------------|-----------------|-0---------------|-----------------|
E---------0-------|-0-------0-------|---------0-------|-0-------0-------|
 
 Asus2    C#m                        Asus2    E
E-------0-------0-|-------0-------0-|-------0-------0-|-------0-------0-|
B-----0-------0---|-----0-------0---|-----0-------0---|-----0-------0---|
G---1-------6-----|---6-------6-----|---1-------1-----|---1-------1-----|
D-----------------|-----------------|-----------------|-----------------|
A-0-------4-------|-4-------4-------|-0---------------|-----------------|
E-----------------|-----------------|---------0-------|-0-------0-------|            
Submit corrections

↑ Back to top | Tablatures and chords for acoustic guitar and electric guitar, ukulele, drums are parodies/interpretations of the original songs. You may use it for private study, scholarship, research or language learning purposes only