» » »

Pete Yorn - All At Once Tabs

Artists:  A B C D E F G H I J K L M N O P Q R S T U V W X Y Z # 

All At Once Tabs

(ver. 2) Click to play this song!
Pete Yorn
 Rating:
4/5 (4 votes)

 All At Once lessons Tabs too difficult? Try these video lessons and learn fast
 
                *All guitars are standard tuning*
            

  Gtr I (Electric w/ Moderate Distortion)

|--------------------------------|
|-----7-----------3--------------|
|-------0-----------0------------|played 3 times alone, then with Gtr II for duration of 1st verse
|---------------------0----------|
|-5S7-----7S-3-3--------3p2-2----|
|---------------------------3----|


  Gtr II (Nylon String Acoustic) 

|-------------------------------3----|
|-----7-----------3-------------3----|
|-------0-----------0-----------0----|
|---------------------0---------0----|    
|-5S7-----7S-3-3--------3p2-2---2----|
|---------------------------3---3----|

CHORUS

  Gtr II (Nylon String Acoustic)

|-2---------3-----------0---------0------------|
|-3---------3-----------3---------3------------|
|-0---------0-----------0---------0------------| these are the implied chords
|-0---------0-----------2---------2------------|
|-----------------------3---------3------------|
|-2---------3----------------------------------|

  Gtr I (Electric w/ Moderate Distortion)

|-------2-----------3-----------0---------0----|
|---3-------3---3-------3---3-----3---3--------|
|-0---0-------0---0-------0---0-----0---0------|   
|----------------------------------------------| 
|----------------------------------------------|
|----------------------------------------------|
this may not be exact, but it is a prety good idea of the arpeggios
played over the chord changes


END OF CHORUS

Gtr II

|-0---0---2----|
|-0---1---3----| these are the chords for the 
|-2---2---2----| turnaround at the end of the 
|-3---2---0----| chorus
|-3---0---0----|
|-1---0---0----|




2ND VERSE (GTR II is same as 1st verse)


Gtr I Fill 

|---7-----7-----7-----7-----7-----7-----7-----7-----7-----7--------|
|-----8-----8-----8-----8-----8-----8-----8-----8-----8-----8------|
|-7-----7-----7-----7-----7-----7-----7-----7-----7-----7-----7----|
|------------------------------------------------------------------|
|------------------------------------------------------------------|
|------------------------------------------------------------------|


|---10-----10-----10-----10-----10-----10-----10-----10-----10-----10--------|
|------7------7------7------7------7------7------7------7------7------7------|
|-7------7------7------7------7------7------7------7------7------7------7----|
|----------------------------------------------------------------------------|
|----------------------------------------------------------------------------|
|----------------------------------------------------------------------------|




BRIDGE 

|-3---3---2---0---3---3--2----|
|-3---3---3---3---3---3--3----| these are the chords, you will need to listen
|-0---0---2---0---0---0--0----| to the song to get the rhythm right
|-2---0---0---2---2---0--0----|
|-3-----------2---3-----------|
|-----3---------------3--2----|




That should be all of the major parts that you need to play the song.

Enjoy!



Tablature Legend
----------------
 h   - hammer-on
 p   - pull-off
 b   - bend
 pb  - pre-bend
 r   - bend release (if no number after the r, then release immediately)
 /\  - slide into or out of (from/to "nowhere")
 s   - legato slide
 S   - shift slide
 - natural harmonic
[n]  - artificial harmonic
n(n) - tapped harmonic
 ~   - vibrato
 tr  - trill
 T   - tap
 TP  - trem. picking
 PM  - palm muting
\n/  - tremolo bar dip; n = amount to dip
 \n  - tremolo bar down
 n/  - tremolo bar up
/n\  - tremolo bar inverted dip
 =   - hold bend; also acts as connecting device for hammers/pulls
 <> - volume swell (louder/softer)
 x   - on rhythm slash represents muted slash
 o   - on rhythm slash represents single note slash
            
Submit corrections


        All At Once lessons Hard to play? Try these video lessons and learn fast All At Once lessons
        
↑ Back to top | Tablatures and chords for acoustic guitar and electric guitar, ukulele, drums are parodies/interpretations of the original songs. You may use it for private study, scholarship, research or language learning purposes only