Home » P » Peter Murphy »

Peter Murphy - Cuts You Up Tabs

Artists:  A B C D E F G H I J K L M N O P Q R S T U V W X Y Z # 

Cuts You Up Tabs

(ver. 3) Click to play this song!
Peter Murphy
[Intro]
E||------------------------0-----0----------------------------------|
B||------0-3-----------------3-------0------------------------------|
G||--0-2---0-------------------------0-------------0-2-------0------|
D||--2-----2-------------------------2-----------------------2------|
A||-----------------------------------------------------------------|
C||--0-----0-0-------2-----2-2-------4-----4-4-----4-4-----4-4------|
     |   X   |   X   |   X   |   X   |   X   |   X   |   X   |   X

E||------------------------0-----0---0-----------7-3-5-------3------|
B||------0-3-----------------3-------0---------------0-------0------|
G||--0-2---0-------------------------0-----------------------0------|
D||--2-----2--------------------------------------------------------|
A||-----------------------------------------------------------------|
C||--0-----0-0-------2-----2-2-------4-----4-4-------4-----4-4------|
     |   X   |   X   |   X   |   X   |   X   |   X   |   X   |   X

E||------------------------0-----0----------------------------------|
B||------0-3-----------------3-------0------------------------------|
G||--0-2---0-------------------------0-------------0-2-------0------|
D||--2-----2-------------------------2-----------------------2------|
A||-----------------------------------------------------------------|
C||--0-----0-0-------2-----2-2-------4-----4-4-----4-4-----4-4------|
     |   X   |   X   |   X   |   X   |   X   |   X   |   X   |   X

E||----------------------------------0------------------------------|
B||------0-3---------3---3-------0---0-------3-------0--------------|
G||--0-2---0---------2---2-----------0-------0-------0-------2------|
D||--2-----2---------0---0-----------------------------------0------|
A||-----------------------------------------------------------------|
C||--0-----0-0-------2---2-----------4-----4-4-----4-4-----4-4------|
     |   X   |   X   |   X   |   X   |   X   |   X   |   X   |   X

[Verse 1]
E||-----------------------------------------------------------------|
B||----------0-0---------0-0---------0---0-0-0-------0---0----------|
G||--0-----0---------2-0-------------0-----------2-----2------------|
D||--2---------------0---------------2------------------------------|
A||----------------------------------------------------------2---5--|
C||--0-----0---------2-----2-2-------4-----4-4-------4-----4--------|
     |   X   |   X   |   X   |   X   |   X   |   X   |   X   |   X

     I find you in the morning, after dreams of distant signs
E||-----------------------------------------------------------------|
B||----------------------0-------0-0-0-------3h5--------------------|
G||------0-0-0-------2-0-------------0-----------0------------------|
D||--2---------------0---------------2------------------------------|
A||--3--------------------------------------------------------------|
C||--0-----0-0-------2-----2-2-------4-----4-4-------4-----4-4---2--|
     |   X   |   X   |   X   |   X   |   X   |   X   |   X   |   X

     You pour yourself over me, like the sun through the blinds
E||-----------------------------------------------------------------|
B||----------------------0-------------0-0-3------------------------|
G||------0-0-0-------2-0-------------------0---0-0---2-0-4----------|
D||--2---------------0-------------------------------0---0----------|
A||--3--------------------------------------------------------------|
C||--0-----0-0-------2-----2-2-------4-----4-4-------4-----4-4---2--|
     |   X   |   X   |   X   |   X   |   X   |   X   |   X   |   X

     You lift me up, and get me out, keep me walking, but never shout
E||-----------------------------------------------------------------|
B||------0-0-0-0-------------------0--------------------------------|
G||--------0-------2-------2-2-0------------------------------------|
D||--2-------------0---------0-----------------------2-X-X-X-X-X-X-X|
A||--3-----------------------------------------------2-X-X-X-X-X-X-X|
C||--0-----0-0-------2-----2-2-------4-----4-4-------4-X-X-X-X-X-X-X|
     |   X   |   X   |   X   |   X   |   X   |   X   |   X   |   X

      Hold the secret close, I hear you say
E||-----------------------------------------------------------------|
B||----------0-------------------------------------0---------0---0--|
G||----------0-2-2-2-------2-2-2-0h2---------0h2-------2-----0-2-0--|
D||----------2---0-----------0---------------0-----------------0-2--|
A||-----------------------------------------------------------------|
C||--4-----4-4-------2-----2-2-------0-----0-0-------0-----0-0------|
     |   X   |   X   |   X   |   X   |   X   |   X   |   X   |   X

     You know the way, it twists and turns, changing colors and spinning yarns
E||-----------------------------------------------------------------|
B||----------0-------------------3-----------------0---------0---0--|
G||----------0-2-2-2-------2-4-----0-------0-0-2-------2-----0-2-0--|
D||--------------0-----------0-------------0-------------------0-2--|
A||-----------------------------------------------------------------|
C||--4-----4-4-------2-----2-2-------0-----0-0-------0-----0-0------|
     |   X   |   X   |   X   |   X   |   X   |   X   |   X   |   X

     You know the way It leaves you dry It cuts you up and takes you high
E||-----------------------------------------------------------------|
B||----------0-------------------------------------0---------0---0--|
G||----------0-2-2-2-------2-2-2-0h2---------0-2-------2-----0-2-0--|
D||--------------0-----------0---------------------------------0-2--|
A||-----------------------------------------------------------------|
C||--4-----4-4-------2-----2-2-------0-----0-0-------0-----0-0------|
     |   X   |   X   |   X   |   X   |   X   |   X   |   X   |   X

     You know the way It's painted gold , Is it honey, is it gold

E||------------------------------------------------0-----------3----|
B||----------0-------------------3---------3-3-3-------3----/5---5\3|
G||----------0-2-2-2-------2-2-----0-------2-----------0-----0---0--|
D||--------------0---------0----------------------------------------|
A||-----------------------------------------------------------------|
C||--4-----4-4-------2-----2-2-------0-----0-0-------0-----0-0------|
     |   X   |   X   |   X   |   X   |   X   |   X   |   X   |   X

     You know the way It throws about, It takes you in and spits you out

[Chorus 1]

E||-----------------------------------------------------------------|
B||-----------------------------------------------------------------|
G||--7---7---7-7-7---5---5-5-----5---5---5---5p4-----0-----0---0-0--|
D||--5---5---5-5-5---3---3-3-----3---2---2---2-------2-----2---2-2--|
A||--5---5---5-5-5---3---3-3-----3---3---3---3-------3-----3---3-3--|
C||--7-------7-------5---------------0---------------0--------------|
     |   X   |   X   |   X   |   X   |   X   |   X   |   X   |   X

                         Cuts you up
E||-----------------------------------------------------------------|
B||-----------------------------------------------------------------|
G||--7---7---7-7-7---5---5-5-----5---5---5---5p4-----0-----0---0-0--|
D||--5---5---5-5-5---3---3-3-----3---2---2---2-------2-----2---2-2--|
A||--5---5---5-5-5---3---3-3-----3---3---3---3-------3-----3---3-3--|
C||--7-------7-------5---------------0---------------0--------------|
     |   X   |   X   |   X   |   X   |   X   |   X   |   X   |   X

                         Cuts you up
E||-----------------------------------------------------------------|
B||-----------------------------------------------------------------|
G||--7---7---7-7-7---5---5-5-----5---5---5---5p4-----0-----0---0-0--|
D||--5---5---5-5-5---3---3-3-----3---2---2---2-------2-----2---2-2--|
A||--5---5---5-5-5---3---3-3-----3---3---3---3-------3-----3---3-3--|
C||--7-------7-------5---------------0---------------0--------------|
     |   X   |   X   |   X   |   X   |   X   |   X   |   X   |   X

                         Cuts you up
E||-----------------------------------------------------------------|
B||------------5-----6---6-6-5-6------------------------------------|
G||--7---7---7-------5---5-5-5---5---5---5---5p4-----0-----0---0-0--|
D||--5---5---5-------3---3-3-3---3---2---2---2-------2-----2---2-2--|
A||--5---5---5-------3---3-3-3---3---3---3---3-------3-----3---3-3--|
C||--7-------7-----------------------0---------------0--------------|
     |   X   |   X   |   X   |   X   |   X   |   X   |   X   |   X

[Instrumental]
E||------------------------0-----0----------------------------------|
B||------0-3-----------------3-------0------------------------------|
G||--0-2---0-------------------------0-------------0-2-------0------|
D||--2-----2-------------------------2-----------------------2------|
A||-----------------------------------------------------------------|
C||--0-----0-0-------2-----2-2-------4-----4-4-----4-4-----4-4------|
     |   X   |   X   |   X   |   X   |   X   |   X   |   X   |   X

E||------------------------0-----0---0-----------7-3-5-------3------|
B||------0-3-----------------3-------0---------------0-------0------|
G||--0-2---0-------------------------0------------------------------|
D||--2-----2--------------------------------------------------------|
A||-----------------------------------------------------------------|
C||--0-----0-0-------2-----2-2-------4-----4-4-----4-4-----4-4------|
     |   X   |   X   |   X   |   X   |   X   |   X   |   X   |   X

E||------------------------0-----0----------------------------------|
B||------0-3-----------------3-------0------------------------------|
G||--0-2---0-------------------------0-------------0-2-------0------|
D||--2-----2-------------------------2-----------------------2------|
A||-----------------------------------------------------------------|
C||--0-----0-0-------2-----2-2-------4-----4-4-----4-4-----4-4------|
     |   X   |   X   |   X   |   X   |   X   |   X   |   X   |   X

E||----------------------------------0------------------------------|
B||------0-3---------3---3-------0---0-------3-------0--------------|
G||--0-2---0---------2---2-----------0-------0-------0-------2------|
D||--2-----2---------0---0-----------------------------------0------|
A||-----------------------------------------------------------------|
C||--0-----0-0-------2---2-----------4-----4-4-----4-4-----4-4------|
     |   X   |   X   |   X   |   X   |   X   |   X   |   X   |   X

[Verse 2]
E||-----------------------------------------------------------------|
B||------------0-0-----0-------------0------------------------------|
G||--0-------------2-0---------------0-------0-----0-----0----------|
D||--2-------------------------------2---2-2-----2---2--------------|
A||----------------------------------------------------------2---5--|
C||--0-----0-0-------2-----2-2-------4-----4-4-------4--------------|
     |   X   |   X   |   X   |   X   |   X   |   X   |   X   |   X

     On and on it goes, calling like a distant wind
E||-----------------------------------------------------------------|
B||----------------------0-------------0-0-0-3-----------0----------|
G||----------0-----2-0---------------0-----------0---2-0------------|
D||----2-2-2---2---------------------2---------------0--------------|
A||-----------------------------------------------------------------|
C||--0-----0-0-------2-----2-2-------4-----4-4-------4-----4-4---2--|
     |   X   |   X   |   X   |   X   |   X   |   X   |   X   |   X

     Through the zero hour we'll walk, we'll cut the thick and break the thin
E||-----------------------------------------------------------------|
B||--------------------------0---------0-0-0-3----------------------|
G||----------------0---2-0-----------------------0---2-0---4--------|
D||--2-2---2-2---------------------------------------0--------------|
A||--3--------------------------------------------------------------|
C||--0-----0-0-------2-----2-2-------4-----4-4-------4-----4-4---2--|
     |   X   |   X   |   X   |   X   |   X   |   X   |   X   |   X

     No sound to break no moment clear, When all the doubts are crystal clear
E||-----------------------------------------------------------------|
B||------0-0-0---0-----------------0--------------------------------|
G||--------0---------2-2---2---0------------------------------------|
D||--2---------------0-----0-------------------------2-X-X-X-X-X-X-X|
A||--3-----------------------------------------------2-X-X-X-X-X-X-X|
C||--0-----0-0-------2-----2-2-------4-----4-4-------4-X-X-X-X-X-X-X|
     |   X   |   X   |   X   |   X   |   X   |   X   |   X   |   X

     Crashing hard into the secret wind
E||-----------------------------------------------------------------|
B||--------0-0-0-----------------------------------0---------0---0--|
G||----------0-----2-------2-4---2-2-------0-0-2-------2-----0-2-0--|
D||----------------0---------0---0-----------------------------0-2--|
A||-----------------------------------------------------------------|
C||--4-----4-4-------2-----2-2-------0-----0-0-------0-----0-0------|
     |   X   |   X   |   X   |   X   |   X   |   X   |   X   |   X

     You know the way It throws about, it takes you in and spits you out
E||-----------------------------------------------------------------|
B||--------0-0-0---------------3-------------------0---------0---0--|
G||----------0-----2-------2-2-----0-------0-0-2-------2-----0-2-0--|
D||----------------0-------0-----------------0-----------------0-2--|
A||-----------------------------------------------------------------|
C||--4-----4-4-------2-----2-2-------0-----0-0-------0-----0-0------|
     |   X   |   X   |   X   |   X   |   X   |   X   |   X   |   X

     It spits you out when you desire, to conque it to feel you're higher
E||-----------------------------------------------------------------|
B||--------0-0-0-----------------------------------0---------0h3-0--|
G||----------0-----2-------2-4---2-2---------0-2-------2-----0---0--|
D||----------------0-------0-----0-------------------------------2--|
A||-----------------------------------------------------------------|
C||--4-----4-4-------2-----2-2-------0-----0-0-------0-----0-0------|
     |   X   |   X   |   X   |   X   |   X   |   X   |   X   |   X

     To follow it you must be clean, with mistakes that you do mean
E||-----------------------------------------------------------------|
B||----------------------------------0---0-0---0-----1-0---3--------|
G||----------------2---2---2---------0---------------0-----0--------|
D||------2-2-2---------------------------------------------0--------|
A||-----------------------------------------------------------------|
C||--4-----4-4-------2-----2-2-------0-----0-0-------0-----0-0------|
     |   X   |   X   |   X   |   X   |   X   |   X   |   X   |   X

     Move the heart, switch the pace, look for what seems out of place

[Chorus 2]
E||-----------------------------------------------------------------|
B||-----------------------------------------------------------------|
G||--7---7---7-7-7---5---5-5-----5---5---5---5p4-----0-----0---0-0--|
D||--5---5---5-5-5---3---3-3-----3---2---2---2-------2-----2---2-2--|
A||--5---5---5-5-5---3---3-3-----3---3---3---3-------3-----3---3-3--|
C||--7-------7-------5---------------0---------------0--------------|
     |   X   |   X   |   X   |   X   |   X   |   X   |   X   |   X

                                 Cuts you up
E||-----------------------------------------------------------------|
B||-----------------------------------------------------------------|
G||--7---7---7-7-7---5---5-5-----5p3-0---5---5p4-----0-----0---0-0--|
D||--5---5---5-5-5---3---3-3-----3---2---2---2-------2-----2---2-2--|
A||--5---5---5-5-5---3---3-3-----3---3---3---3-------3-----3---3-3--|
C||--7-------7-------5---------------0---------------0--------------|
     |   X   |   X   |   X   |   X   |   X   |   X   |   X   |   X

                                 Cuts you up
E||-----------------------------------------------------------------|
B||----------------------------------5---5---------5-----5----------|
G||--7---7---7---7-7---5---5-------5-0-------5---5-------5---5------|
D||--5---5---5---5-5---3---3-------3-2-------2---2-------3---3------|
A||--5---5---5---5-5---3---3-------3-------------------------0------|
C||--7-------7-----------------------0-------0-------0--------------|
     |   X   |   X   |   X   |   X   |   X   |   X   |   X   |   X

        Its ok, It goes this way, The line it twists, It twists away
E||-----------------------------------------------------------------|
B||------------5-----6-6---6---------5---5---5---3-3-5-5---5p3------|
G||--7---7---7-------5-----5---------0-------0-------0-----0--------|
D||--5---5---5-------3-----3---------2-------2-------2-----2--------|
A||--5---5---5-------3----------------------------------------------|
C||--7-------7-----------------------0---------------0--------------|
     |   X   |   X   |   X   |   X   |   X   |   X   |   X   |   X

        Cuts you up and spits you out, keeps you walkig but never shout
E||-----------------------------------------------------------------|
B||------------5-----6---6-6-5-6------------------------------------|
G||--7---7---7-------5---5-5-5---5---5---5---5p4-----0-----0---0-0--|
D||--5---5---5-------3---3-3-3---3---2---2---2-------2-----2---2-2--|
A||--5---5---5-------3---3-3-3---3---3---3---3-------3-----3---3-3--|
C||--7-------7-----------------------0---------------0--------------|
     |   X   |   X   |   X   |   X   |   X   |   X   |   X   |   X

E||-----------------------------------------------------------------|
B||------------5-----6---6-6-5-6------------------------------------|
G||--7---7---7-------5---5-5-5---5---5---5---5p4-----0-----0---0-0--|
D||--5---5---5-------3---3-3-3---3---2---2---2-------2-----2---2-2--|
A||--5---5---5-------3---3-3-3---3---3---3---3-------3-----3---3-3--|
C||--7-------7-----------------------0---------------0--------------|
     |   X   |   X   |   X   |   X   |   X   |   X   |   X   |   X            
Submit corrections

↑ Back to top | Tablatures and chords for acoustic guitar and electric guitar, ukulele, drums are parodies/interpretations of the original songs. You may use it for private study, scholarship, research or language learning purposes only