Home » P » Peter Frampton »

Peter Frampton - Do You Feel Like We Do Tabs

Artists:  A B C D E F G H I J K L M N O P Q R S T U V W X Y Z # 

Do You Feel Like We Do Tabs

(ver. 1) Click to play this song!
Peter Frampton


E--8------10--8------------------------------------------------------------------|
B-----10---------10--8-----------8----------------------8------------------------|
G-------------------------10--7-----10--7--------10--7-----10--7------7----------|
D------------------------------------------10---------------------10-----10-8-10-|
A--------------------------------------------------------------------------------|
E--------------------------------------------------------------------------------|
Play 2-4 times

E--5----7----|
B--6----7----|
G--7----9----|
D--7----9----|
A--5----7----|
E--5----7----|


Chorus:

E--0--------0--------0----|
B--3--------1--------1----|
G--0--------2--------0----|
D--4--------3--------2----|
A--5--------0--------3----|
E--0--------0--------0----|
"Do you... feel like we do"

well thats all I have so far but when i get some of it i will post it here ok. this is 
the band CHIT!!!
jess, steve-o, tiff, Z.
            
Submit corrections

↑ Back to top | Tablatures and chords for acoustic guitar and electric guitar, ukulele, drums are parodies/interpretations of the original songs. You may use it for private study, scholarship, research or language learning purposes only