Home » P » Perpetual Groove »

Perpetual Groove - Sweet Oblivious Antidote Tabs

Artists:  A B C D E F G H I J K L M N O P Q R S T U V W X Y Z # 

Sweet Oblivious Antidote Tabs

(ver. 2) Click to play this song!
Perpetual Groove
Intro Riff:
E|--0~~~~---0--0---------0--|
B|--2-/-5-\-2--0---------0--|
G|---------------1-------2--|
D|-----------------4\2---2--|
A|--------------------------|
E|--------------------------|

Rhythm guitar: A E (occasional high E 2p0 for each chord)

Lead:
E|----------------------------------|-----------------------------|--
B|--9--9--9-------------------------|--9--9---------12--9---------|--
G|----------11--11b13r11--9--11--9--|--------11--9---------11--9--|--
D|----------------------------------|-----------------------------|--
A|----------------------------------|-----------------------------|--
E|----------------------------------|-----------------------------|--
                                                    (intro riff)
E|---------------------------------------------------|--
B|--9--------------------9--9------------------------|--
G|-----11--11p9--9~------------11--11--9--9----------|--
D|-------------------------------------------9h11p9--|--
A|---------------------------------------------------|--
E|---------------------------------------------------|--

E|--------------------------|----------------------------------------|--
B|--9--9--------------------|--9--9---------12--9--------------------|--
G|--------11--11p9--9~------|--------11--9---------11--9-------------|--
D|--------------------------|-----------------------------9/11\9--9--|--
A|--------------------------|----------------------------------------|--
E|--------------------------|----------------------------------------|--
                                            (intro riff)

              A
I said let it ride then
           E
Burn up so bright that no one can see
           A
Maybe just hide then
                   E
A good place could be right in front of me
               A
Cause I'm busy searching
              E
Searchin' for what, I'm not really sure
         A
Maybe an answer
           (intro riff)
Maybe some sweet oblivious cure

{guitars in verse do some hammer-ons/pull-offs and stuff}
                                                                                         guitar 2 plays (9~)
E|------------------------|------------------------|-----------------------|-----------------------------|--
B|--5--5--4--4b5r4--2~----|--(4)5--5--4b5p2--------|--5--5--4--4--4--2--2--|----5--5--4--5--2/5--12--9~--|--
G|------------------------|------------------4/6---|-----------------------|---------------(9~~~)--------|--
D|------------------------|------------------------|-----------------------|-----------------------------|--
A|------------------------|------------------------|-----------------------|-----------------------------|--
E|------------------------|------------------------|-----------------------|-----------------------------|--

E|-----------------------------|----------------------------------|--
B|--9--------------------------|--9-9-----------------------------|--
G|-----11--11--9--9~--------9--|--------11--11--9--9--------------|--
D|--------------------9h11-----|----------------------9-h-11-p-9--|--
A|-----------------------------|----------------------------------|--
E|-----------------------------|----------------------------------|--

E|-------------------------------|-----------------------------|--
B|--9-9--------------------------|--9--9---------12--9---------|--
G|--------11--11--11--13--11--9--|--------11--9---------11--9--|--
D|-------------------------------|-----------------------------|--
A|-------------------------------|-----------------------------|--
E|-------------------------------|-----------------------------|--
                                                 (intro riff)
E|--------------------|------------------------------|---------------------|--
B|--9h10--9--9--------|--9--9------------------------|--5-5--4--4-2--2~----|--
G|--------------9--9--|--------11--11--9--9----------|---------------------|--
D|--------------------|----------------------9h11p9--|---------------------|--
A|--------------------|------------------------------|---------------------|--
E|--------------------|------------------------------|---------------------|--

[intro riff]

              A
I said let it ride then
           E
Burn up so bright that no one can see
           A
Maybe just hide then
                   E
A good place could be right in front of me
               A
Cause I'm busy searching
              E
Searchin' for what, I'm not really sure
         A
Maybe an answer
           (intro riff)
Maybe some sweet oblivious cure

{guitars in verse do some hammer-ons/pull-offs and stuff}

E|--12-11--11p9--9~--|--12-12--11--11--9--9----------|--12-12--11--11b12p9---|--
B|-------------------|------------------------9--12--|-----------------------|--
G|-------------------|-------------------------------|-----------------------|--
D|-------------------|-------------------------------|-----------------------|--
A|-------------------|-------------------------------|-----------------------|--
E|-------------------|-------------------------------|-----------------------|--

E|--12-12-11-12---12--9---------|----------------------------|--
B|-----------------------12--9--|--9h12--12--12b14r12--12----|--
G|------------------------------|----------------------------|--
D|------------------------------|----------------------------|--
A|------------------------------|----------------------------|--
E|------------------------------|----------------------------|--
                  (intro riff)
E|-----------------------------|--12-12-12-12-9---------------------|-------------------------------------|--
B|--12-----12------------------|----------------12-9----------------|--12-----------12--------------------|--
G|--11h13--13--11\9--9h11p9--9-|---------------------11-9--------9--|-----9-9-9~---9---9-9-9~--9*-----9\--|--
D|-----------------------------|--------------------------9-9-11----|-------------------------------------|--
A|-----------------------------|------------------------------------|-------------------------------------|--
E|-----------------------------|------------------------------------|-------------------------------------|--
                                                                                               (intro riff)
                                                                                               *keep repeating
[2:10]
Piano: A E B

(delay, play with volume knobs)
E|--------------------------------------------------------------------------|--
B|--12~~~\-----------12~~\--------------------------------------------------|--
G|------------9~~\------------9~~~\-----------------------------------------|--
D|--------------------------------------9/11\9~--------------------9--------|--
A|------------------------------------------------9/11\9~----9/11-----11\9--|--
E|--------------------------------------------------------------------------|--

E|-----------------------------------------|----------------------------|--
B|-----------------------------------------|--12(x15)--12-9-------------|--
G|--------------------8-9~-------9---------|----------------12-9~-------|--
D|---------------9------------------9--9~--|----------------------------|--
A|--11\9~---9h11---11--------11------------|----------------------------|--
E|-----------------------------------------|----------------------------|--

E|-----------------------------------------|--------------------------------------------|--
B|-----------------------------------------|-----10-------------------------------------|--
G|----------------------------------8--9---|--9------9-9-9-9-9-9-9~--9------------------|--
D|--------11b11.5r11--9~-------9-----------|----------------------------11b11.5r11--9~--|--
A|--9h11-----------------9h11----11--------|--------------------------------------------|--
E|-----------------------------------------|--------------------------------------------|--

E|--------------------------------|-----------------------------|-----------------------------------------|--
B|--12-12-12-12-12-12-12-9--------|-----10----------------------|-----------------------------------------|--
G|-------------------------11-9~--|--9------------9-------------|--8h9-9~-8h9~------------9---------------|--
D|--------------------------------|-------11--9~----11b11.5--9--|----------------9/11\9~---11b11.5r11--9~-|--
A|--------------------------------|-----------------------------|-----------------------------------------|--
E|--------------------------------|-----------------------------|-----------------------------------------|--

E|---------------------------------------|------------------------------------|-
B|---------------------------------------|-----10-----------------------------|-
G|-11-11-11-11-11-11-11-11-11-11-9-8-9~--|--9---------------------------------|-
D|---------------------------------------|--------11--9~---11--11b11.5r11--9~-|-
A|---------------------------------------|------------------------------------|-
E|---------------------------------------|------------------------------------|-

E|--------------------------------|------------------------------|--------------------|--
B|--12-12-12-12-12-12-12-9--------|-----10-----------------------|--------------------|--
G|-------------------------11-9~--|--9------------9--------------|-----------8--9~----|--
D|--------------------------------|-------11--9~----11b11.5--9~--|--------9-----------|--
A|--------------------------------|------------------------------|--9h11--------------|--
E|--------------------------------|------------------------------|--------------------|--

Oooooohhhh
E|---------------------------------|-----------------|--
B|---------------------------------|-----------------|--
G|---------------------------------|-----------8--9~-|--
D|--9/11~--9/11~--9~--------9--9~--|--------9--------|--
A|--------------------9h11---------|--9h11-----------|--
E|---------------------------------|-----------------|-- x2

E|---------------------------------|-----------------|--
B|---------------------------------|-----------------|--
G|--------------------9--8--9--8~--|-----------8--9~-|--
D|--9/11~----11~--9~---------------|--------9--------|--
A|---------------------------------|--9h11-----------|--
E|---------------------------------|-----------------|--

E|---------------------------------|---------------------------|--
B|---------------------------------|--12----12----12-----------|--
G|---------------------------------|--11b13-11b13-11b13r11-9~--|--
D|--9/11~----11~--9~--------9--9~--|---------------------------|--
A|--------------------9h11---------|---------------------------|--
E|---------------------------------|---------------------------|--

E|---------------------------------|---------------------------|--
B|---------------------------------|--12----12----12-----------|--
G|--9~---9~---9~---9~---9----------|--11b13-11b13-11b13r11-9~--|--
D|------------------------11--9~---|---------------------------|--
A|---------------------------------|---------------------------|--
E|---------------------------------|---------------------------|--

E|----------------------------------|---------------------------|--
B|----------------------------------|--12----12----12-----------|--
G|--9~---9~---9~---9~---9-9p8-------|--11b13-11b13-11b13r11-9~--|--
D|-----------------------------9~---|---------------------------|--
A|----------------------------------|---------------------------|--
E|----------------------------------|---------------------------|--

E|---------------------------------|-----------------|--
B|---------------------------------|-----------------|--
G|--9~---9~---9~---9~---9----------|-----------8--9~-|--
D|------------------------11--9~---|--------9--------|--
A|---------------------------------|--9h11-----------|--
E|---------------------------------|-----------------|--

E|--------------------------------|----------------|--
B|--------------------------------|----------------|--
G|--9------9------9---------------|--9~-----9~-----|--
D|--9h11~--9h11~--9~-------9--9~--|-----9~-----9~--|--
A|--------------------9h11--------|----------------|--
E|--------------------------------|----------------|--

**repeat each chord strumming up and down several times
alternate between the first 2, add the other parts when needed**
E|----------------------------------------------------------------|
B|--------------------------------12-----12b14-12b14-12b14r12-9---|
G|----9----8--------8--6--8-------11-----11b13-11b13-11b13r11-9~--|
D|----9----9--------9--9--9---------------------------------------|
A|----------------------------------------------------------------|
E|----------------------------------------------------------------|            
Submit corrections

↑ Back to top | Tablatures and chords for acoustic guitar and electric guitar, ukulele, drums are parodies/interpretations of the original songs. You may use it for private study, scholarship, research or language learning purposes only