Home » P » Perpetual Groove »

Perpetual Groove - Teakwood Betz Bass

Artists:  A B C D E F G H I J K L M N O P Q R S T U V W X Y Z # 

Teakwood Betz Bass

(ver. 1) Click to play this song!
Perpetual Groove
This is a pretty good tab but isn't 100% right because he uses alot of improv stuff
towards the end.  So don't take it word for word us it more as a guide all the notes
listed are in there.


Teakwood Betz  bass tab

BASS INTRO

G------------------------------------------|
D------------------------------------------|
A-----9-----------12----------7------------|X2
E-7-7---7---10-10----10---5-5---5----------|
B------------------------------------------|

DRUMS IN

G------------------------------------------|
D------------------------------------------|
A-----9-----------12----------7------------|X2
E-7-7---7---10-10----10---5-5---5----------|
B------------------------------------------|

FULL DRUM IN (echo guitar)

G------------------------------------------|
D------------------------------------------|
A-----9-----------12----------7------------|X4
E-7-7---7---10-10----10---5-5---5----------|
B------------------------------------------|

Guitar in

G------------------------------------------|
D------------------------------------------|
A-----9-----------12----------7------------|X4
E-7-7---7---10-10----10---5-5---5----------|
B------------------------------------------|

Verse
G------------------------------------------|
D------------------------------------------|
A-----9-----------12----------7------------|X4
E-7-7---7---10-10----10---5-5---5----------|
B------------------------------------------|

PRELUDE
G------------------------------------------|
D------------------------------------------|
A-----9---------9---------9---------9------|X2
E-7-7---7---7-7---7---7-7---7---7-7---7----|
B------------------------------------------|

VERSE (with guitar low)

G------------------------------------------|
D------------------------------------------|
A-----9-----------12----------7------------|X4
E-7-7---7---10-10----10---5-5---5----------|
B------------------------------------------|

VERSE (with guitar high)

G------------------------------------------|
D------------------------------------------|
A-----9-----------12----------7------------|X8
E-7-7---7---10-10----10---5-5---5----------|
B------------------------------------------|

PRELUDE
G------------------------------------------|
D------------------------------------------|
A-----9---------9---------9---------9------|
E-7-7---7---7-7---7---7-7---7---7-7---7----|
B------------------------------------------|

VERSE 2

G-------6------------------6---------------|
D------------------------------------------|
A---7h9---9-9-7-99-----7h9---7-7-7-7-7-----|X4
E-7------------------7---------------------|
B------------------------------------------|

REPEAT
G------------------------------------------|
D-9---7-------------9---7------------------|
A---9---9-9-7-9-9-----9---7-7-7-7-7--------|X6 (X4 2ND TIME)
E------------------------------------------|
B------------------------------------------|

G-----6------------------------------------|
D-9-----------------9---7------------------|
A---9---9-9-7-9-9-----9---7-7-7-7-7--------|
E------------------------------------------|
B------------------------------------------|
	Improv off this
G------------------------------------------|
D-9---7-------------9---7------------------|
A---9---9-9-7-9-9-----9---7-7-7-7-7--------|X??
E------------------------------------------|
B------------------------------------------|

 (improv on this also)
G---------------------------------|
D-9----7--------------------------|
A--9X9--999-----------------------|X???
E---------------------------------|
B---------------------------------|


G------------------------------------------|
D-9---7-------------9---7------------------|
A---9---9-9-7-9-9-----9---7-7-7-7-7--------|
E------------------------------------------|
B------------------------------------------|

G-----6------------------------------------|
D-9-----------------9---7------------------|
A---9---9-9-7-9-9-----9---7-7-7-7-7--------|
E------------------------------------------| X????
B------------------------------------------|

ENDING
G------------------------------------------|
D------------------------------------------|
A-----9---------9---------9---------9------|
E-7-7---7---7-7---7---7-7---7---7-7---7----|
B------------------------------------------|
            
Submit corrections

↑ Back to top | Tablatures and chords for acoustic guitar and electric guitar, ukulele, drums are parodies/interpretations of the original songs. You may use it for private study, scholarship, research or language learning purposes only