» » »

Pepper - Your Face Tabs

Artists:  A B C D E F G H I J K L M N O P Q R S T U V W X Y Z # 

Your Face Tabs

(ver. 1) Click to play this song!
Pepper
 Rating:
4/5 (4 votes)

 Your Face lessons Tabs too difficult? Try these video lessons and learn fast
 
                Not 100% but, its a start. Post an edited or corrected version if you can.

Intro/Verse/Prechorus:

(Listen for Timing)

      A    C#m   G   Bm
------5-----4----3----2-----------------------------|
------5-----5----3----3-----------------------------|
------6-----6----4----4-----------------------------|
------7-----6----5----4-----------------------------|
------7-----4----5----2-----------------------------|
------5----(4)---3---(2)----------------------------|

 Intro: w/ Distortion
 Verse: w/ Distortion
 Pre-Chorus: Clean Reggae upstroke (Hold the G chord, Don't go to the B on the last one)


Chorus:
      D            A#   G <---Only every other chorus
-----(5)-----------6----3--------------------------------|
------7-----7------6----3--------------------------------|
------7----7-------7----4--------------------------------|
------7---7--------8----5--------------------------------|
------5--5---------8----5--------------------------------|
-----(5)-----------6----3--------------------------------|

Post-Chorus: Verse Chords
            
Submit corrections


        Your Face lessons Hard to play? Try these video lessons and learn fast Your Face lessons
        
↑ Back to top | Tablatures and chords for acoustic guitar and electric guitar, ukulele, drums are parodies/interpretations of the original songs. You may use it for private study, scholarship, research or language learning purposes only