» » »

Pepper - Tradewinds Tabs

Artists:  A B C D E F G H I J K L M N O P Q R S T U V W X Y Z # 

Tradewinds Tabs

(ver. 1) Click to play this song!
Pepper
 Rating:
4.4/5 (17 votes)

 Tradewinds  lessons Tabs too difficult? Try these video lessons and learn fast
 
                [Verse:]

      D   Gb/Db   D6    A
e-----5-----6-----7-----5----------|
B-----7-----7-----7-----5----------|
G-----7-----6-----7-----6----------|
D-----------------------7----------|
A----------------------------------|
E----------------------------------|


[Chorus:]

      D     A     Bm    G
e-----5-----5-----7-----3----------|
B-----7-----5-----7-----3----------|
G-----7-----6-----7-----4----------|
D-----7-----7-----9-----5----------|
A-----5-----7-----9-----5----------|
E-----5-----5-----7-----3----------|            
Submit corrections


        Tradewinds  lessons Hard to play? Try these video lessons and learn fast Tradewinds  lessons
        
↑ Back to top | Tablatures and chords for acoustic guitar and electric guitar, ukulele, drums are parodies/interpretations of the original songs. You may use it for private study, scholarship, research or language learning purposes only