» » »

Pepper - The Phoenix Tabs

Artists:  A B C D E F G H I J K L M N O P Q R S T U V W X Y Z # 

The Phoenix Tabs

(ver. 1) Click to play this song!
Pepper
 Rating:
4/5 (4 votes)

 The Phoenix lessons Tabs too difficult? Try these video lessons and learn fast
 
                The Phoenix 

This are the main riffs of the songs
Not everythings in order
but if you get comfortable with these few riffs
it'll be REALLY easy to know what goes when 
d=(n_n)z

WHOLE SONG USES A DELAY/ECHO
:D

Intro:
e|------5--------------------5---(let)-------------------------------------|
B|---------6-5---------------5---(ring)------------------------------------|
G|--------------5-7-5------------------------------------------------------|
D|--------------------7----------------------------------------------------|
A|-------------------------------------------------------------------------|
E|-------------------------------------------------------------------------|

During most singing:
** For this part play first note with volume on the guitar on 0 (off)
play the note, slowly turn the volume up and back down.
(Note: Do this on your guitar and not amp...noob)
With Delay it sounds really good.
e|-------------------------------------------------------------------------|
B|-------------------------------------------------------------------------|
G|--------5~~~----------7~~~-----------------------------------------------|
D|-------------------------------------------------------------------------|
A|-------------------------------------------------------------------------|
E|-------------------------------------------------------------------------|
Repeat.




e|-------------10----------------------------------------------------------|
B|-------------10----------------------------------------------------------|
G|-----7h10p7--------------------------------------------------------------|
D|--------------------7-10-9-----------------------------------------------|
A|-------------------------------------------------------------------------|
E|-------------------------------------------------------------------------|
            
Submit corrections


        The Phoenix lessons Hard to play? Try these video lessons and learn fast The Phoenix lessons
        
↑ Back to top | Tablatures and chords for acoustic guitar and electric guitar, ukulele, drums are parodies/interpretations of the original songs. You may use it for private study, scholarship, research or language learning purposes only