» » »

Pepper - Illuminate Tabs

Artists:  A B C D E F G H I J K L M N O P Q R S T U V W X Y Z # 

Illuminate Tabs

(ver. 1) Click to play this song!
Pepper
 Rating:
4/5 (4 votes)

 Illuminate lessons Tabs too difficult? Try these video lessons and learn fast
 
                -------------------------------------------------------------------------------
-------------------------------------------------------------------------------

Tuning: standard


Intro

e|----------------------------------|
B|----------------------------------|
G|-7-6-7-6-7-6-7-6-7-6-7-6-7-6-7-6--|
D|----------------------------------|
A|----------------------------------|
E|----------------------------------|

e|-------------------------------------------------------------------------------|
B|-7----------------------------------------7------------------------------------|
G|---9---7-6---7-6---7-6-7-----7---7----------9---7-6---7-6---7-6-7--------------|
D|-------------------------9-----9---9------------------------------9-----9---9--|
A|----------------------------------------------------------------------9---9----|
E|-------------------------------------------------------------------------------|
(during the solo at the end there is a 2nd guitar playing 3rds or something)



Verse

e|-------2-----------------------2-----------5-----|
B|-------3-----------7-----------2-----------5-----|
G|-4-4-4-4-----7-7-7-7-----------2-----------5-----|
D|-4-4-4-4-----7-7-7-7-----4-4-4-4-----7-7-7-7-----|
A|-2-2-2-2-----5-5-5-5-----4-4-4-4-----7-7-7-7-----|
E|-------------------------2-2-2-2-----5-5-5-5-----|

e|-2---2---2---2-------------------2---2---2---2---5---5---5---5---|
B|-3---3---3---3---7---7---7---7---2---2---2---2---5---5---5---5---|
G|-4---4---4---4---7---7---7---7---2---2---2---2---6---6---6---6---|
D|-4---4---4---4---7---7---7---7---4---4---4---4---7---7---7---7---|
A|-2---2---2---2---5---5---5---5---4---4---4---4---7---7---7---7---|
E|---------------------------------2---2---2---2---5---5---5---5---|



Chorus

      D       F#m7       Em         B
e|-10---10---9----9----12---12---11---11---|
B|-10---10---10---10---12---12---12---12---|
G|-11---11---9----9----12---12---11---11---|
D|-----------------------------------------|
A|-----------------------------------------|
E|-----------------------------------------|
(one guitar plays a reggea rythm and an acoustic guitar plays each chord once)

e|-------------------------------------------------------------------------------|
B|-7----------------------------------------7------------------------------------|
G|---9---7-6----------------------------------9---7-6----------------------------|
D|-------------------------------9---9------------------------------------9---9--|
A|-----------------------------9---9------------------------------------9---9----|
E|-------------------------------------------------------------------------------|




Bridge

e|-4------7------4---7--7------0------2------|
B|-5------9------5---5--9------2------4------|
G|-6------9------7---4--9------2------4------|
D|-6------9------6---6--9------2------4------|
A|-4------7------4---4--7------0------2------|
E|-------------------------------------------|
(I'm not 100% sure about the last 2 chords)
            
Submit corrections


        Illuminate lessons Hard to play? Try these video lessons and learn fast Illuminate lessons
        
↑ Back to top | Tablatures and chords for acoustic guitar and electric guitar, ukulele, drums are parodies/interpretations of the original songs. You may use it for private study, scholarship, research or language learning purposes only