» » »

Pepper - Hos Tabs

Artists:  A B C D E F G H I J K L M N O P Q R S T U V W X Y Z # 

Hos Tabs

(ver. 1) Click to play this song!
Pepper
 Rating:
4.3/5 (26 votes)

 Hos  lessons Tabs too difficult? Try these video lessons and learn fast
 
                [Solo] 
(I Also added the horns in the solo)
e|--8----8------------------------------8----8-------------------------------|
B|----11----11--8-11-8--11--8-11-8--------11----11--8-11-8--11--8-11-8-------|
G|----------------------------------10----------------------------------10---|
D|---------------------------------------------------------------------------|
A|---------------------------------------------------------------------------|
E|---------------------------------------------------------------------------|

e|-11-11-11-8-8-8-8---8----8-------------------------------------------------|
B|------------------11---11---11-8-11--8-11-8---8----------------------------|
G|--------------------------------------------10--10-8-10--8-10-8----8-------|
D|-----------------------------------------------------------------10--------|
A|---------------------------------------------------------------------------|
E|---------------------------------------------------------------------------|

e|---------------------------------------------------------------------------|
B|-11-8-6-8-11--11-8-6-8--11--11-8-6-8--11--11-8-6-8-6-----------------------|
G|---------------------------------------------------------------------------|
D|---------------------------------------------------------------------------|
A|---------------------------------------------------------------------------|
E|---------------------------------------------------------------------------|            
Submit corrections


        Hos  lessons Hard to play? Try these video lessons and learn fast Hos  lessons
        
↑ Back to top | Tablatures and chords for acoustic guitar and electric guitar, ukulele, drums are parodies/interpretations of the original songs. You may use it for private study, scholarship, research or language learning purposes only