» » »

Pepper - Himala Tabs

Artists:  A B C D E F G H I J K L M N O P Q R S T U V W X Y Z # 

Himala Tabs

(ver. 1) Click to play this song!
Pepper
 Rating:
4/5 (4 votes)

 Himala lessons Tabs too difficult? Try these video lessons and learn fast
 
                ######################################################################################
####################### HIMALA - BELL PEPPER VERSION [2011] ##########################
######################################################################################
Lead guitarist 
Guitar tab for himala - bell pepper version

Intro
Chords:F#, G, D [keyboard + guitar]                F#, G, D [All instrument]intro lead part
e----------------------------------------|-|------------------------------------------|
B-------------------------------------15-|-|------------------------------------------|
G-------------7j5--------14-14-14-/14----|-|------------------------------------------|
D-----4j5-5/7-----7/9-12-----------------|-|------------------------------------------|
A-5j7------------------------------------|-|--19b-19b-19b-17-19 19b20r19-17b19r17--15-|
E----------------------------------------|-|------------------------------------------|

e-------------------------------------------------------------------------------------|
B-------------------------------------------------8-10-8-10-12-10-12/14-12-14-15-17/19|
G--------------------------------------7-9-7-9-11-------------------------------------|
D-/7-7-7-7/12-12-/7-7-7/12-12--7-5-7-9------------------------------------------------|
A-------------------------------------------------------------------------------------|
E-------------------------------------------------------------------------------------|

e-------------------------------------------------------------------------------------|
B-17/19-15-17-19-19/20-17/19-15------------------------15-----------------------------|
G-------------------------------------------------------------------------------------|
D------------------------------/7-7-7-7/12-12-14-14/16--------------------------------|
A-------------------------------------------------------------------------------------|
E-------------------------------------------------------------------------------------|

######################################################################################
########################################Verse 1#######################################
######################################################################################
*this verse played by a keyboard, drums, bass guitar and a simple guitar pluck*

e--------|----------|---------------------||------------|-------------|---------------|
B-----2--|-----5----|-----7-------10-8---7||-------2----|-------5-----|-------7-15----|
G---2---2|---7----7-|---7-----7-----------||---2-------2|---7-------7-|---7-----12----|
D-4----4-|-5----5---|-7-----7---7------7--||-4---4---4--|-5---5---5---|-7---7---12----|
A--------|----------|---------------------||------------|-------------|---------------|
E-----------------------------------------||------------|-------------|---------------|


######################################################################################
########################################Refrain#######################################
######################################################################################

e-x-xxx-xxx-x-------------------------------------------------------------------------|
B-x-xxx-xxx-x-------------------------------------------------------------------------|
G-x-xxx-xxx-x-------------------------------------------------------------------------|
D-4-4Pm-4Pm-4-------------------------------------------------------------------------|
A-4-4Pm-4Pm-4-------------------------------------------------------------------------|
E-2-2Pm-2Pm-2-------------------------------------------------------------------------|

***********************************hindi pa tapos to************************************
            
Submit corrections


        Himala lessons Hard to play? Try these video lessons and learn fast Himala lessons
        
↑ Back to top | Tablatures and chords for acoustic guitar and electric guitar, ukulele, drums are parodies/interpretations of the original songs. You may use it for private study, scholarship, research or language learning purposes only