» » »

Pendulum - Witchcraft Bass

Artists:  A B C D E F G H I J K L M N O P Q R S T U V W X Y Z # 

Witchcraft Bass

(ver. 1) Click to play this song!
Pendulum
 Rating:
4/5 (4 votes)


 Witchcraft lessons Tabs too difficult? Try these video lessons and learn fast
 
                Pendulum Witchcraft Bass tab



Intro

------------------    ------------------------------|
-------1----------    ------------------------------|
----4-----1------- x4 -4-4--6-6------------4-4--6-6-|
-3----------------    ----------3-3--6-6------------|


Build Up

-----------------------------------|
-----------------------------------|
------------------3-3-3-3--6-6-6-6-|
-3-3-3-3--6-6-6-6------------------|

Pre Chorus

-------------------------------------------------------------------|
-------------------------------------------------------------------|
-----------------4-4-4-4-4-4-4-4------------------1-1-1-1-1-1-1-1--| x4
-3-3-3-3-3-3-3-3------------------1-1-1-1-1-1-1-1------------------|

Chorus

----------------------------------------------------------|
----------------------------------------------------------|
-----------------------------------4-3-1-3----------------|
-3--3-5-3-1-3--3-5-6--3--3-5-3-1-3----------6-------------|

------------------------------------------------------|
------------------------------------------------------|
-----------------------------------4-3----------------|
-3--3-5-3-1-3--3-5-6--3--3-5-3-1-3------6-------------|

----------------------------------------------------------|
----------------------------------------------------------|
-----------------------------------4-3-1-3----------------|
-3--3-5-3-1-3--3-5-6--3--3-5-3-1-3----------6-------------|

---------------------|
---------------------|
---------------------|
-3--3-5-3-1-3--3-5-6-|

Pre Verse

----------------------------------|
----------------------------------|
----------------------------------|
-3-3-3-3-3-3-3-3--1-1-1-1-1-1-1-1-|

Verse

-------------------------------------------------------------------|
-------------------------------------------------------------------|
-----------------4-4-4-4-4-4-4-4------------------1-1-1-1-1-1-1-1--| x3
-3-3-3-3-3-3-3-3------------------1-1-1-1-1-1-1-1------------------|

-------------------------------------------------------------------|
-------------------------------------------------------------------|
-----------------------------------1-1-1-1-1-1-1-1--4-4-4-4-4-4-4-4|
-3-3-3-3-3-3-3-3--6-6-6-6-6-6-6-6----------------------------------|

Pre Chorus

Chorus

Verse

Pre Chorus

Chorus

Pre Verse

Chorus

Ending, For ending play Pre Verse but end with a ---
                                                 ---
                                                 ---
                                                 -3-

Thanks for Reading

Track Length, 4 min 14 sec
            
Submit corrections



        Witchcraft lessons Hard to play? Try these video lessons and learn fast Witchcraft lessons
        
↑ Back to top | Tablatures and chords for acoustic guitar and electric guitar, ukulele, drums are parodies/interpretations of the original songs. You may use it for private study, scholarship, research or language learning purposes only