» » »

Pendulum - Hold Your Colour Tabs

Artists:  A B C D E F G H I J K L M N O P Q R S T U V W X Y Z # 

Hold Your Colour Tabs

(ver. 1) Click to play this song!
Pendulum
 Rating:
4/5 (4 votes)
                "(Live)
(Intro)
!!!!THIS IS CONCERT version it wont be identical with album version!!!!

E|-----------------13-------------------------------------------------------|
B|-----15-15-15-15----------------------------------------------------------|
G|--------------------------------------------------------------------------|4X
D|--------------------------------------------------------------------------|
A|--------------------------------------------------------------------------|
E|--------------------------------------------------------------------------|
Play this in every verse too
E|-------------------------------13-----------13h15---------------------------|
B|--------------------15-15-15-15---15-15-15-15-------------------------------|
G|----------------------------------------------------12-15--15--12--10-12-15-|
D|--------------------------------------------------------12--10--10----------|
A|----------------------------------------------------------------------------|
E|----------------------------------------------------------------------------|
"            
Submit corrections

↑ Back to top | Tablatures and chords for acoustic guitar and electric guitar, ukulele, drums are parodies/interpretations of the original songs. You may use it for private study, scholarship, research or language learning purposes only