» » »

Paul Simon - 50 Ways To Leave Your Lover Tabs

Artists:  A B C D E F G H I J K L M N O P Q R S T U V W X Y Z # 

50 Ways To Leave Your Lover Tabs

(ver. 2) Click to play this song!
Paul Simon
 Rating:
4.2/5 (22 votes)

 50 Ways To Leave Your Lover lessons Tabs too difficult? Try these video lessons and learn fast
 
                 Intro          1st & 3rd Verses
  Q=104
                 Em/G D6     Cmaj7B7b9    Em   D#°
 4/4
  Gtr I (Ac. Gtr.)
  Wx4            H    H      H    Q  Q    H    H
|------------||--0----2----|-0----------|-0----2----|
|------------||o-0----0----|-0----1--0--|-0----1----|
|------------||--0----2----|-0----2-----|-0----2----|
|------------||--2----0----|------1-----|-2----1----|
|------------||o-----------|-3----2-----|-----------|
|------------||--3---------|------------|-----------|
|                            H    H
|
| Gtr II (El. Gtr.)
| Wx4            H    H      H    H       H    H
|------------||--3----2----|-7----------|-7---------|
|------------||o-5----3----|-5----7-----|-8----7----|
|------------||--4----4----|-5----5-----|-9----5----|
|------------||--5----0----|-5----7-----|-9----7----|
|------------||o-----------|------6-----|------6----|
|------------||------------|------------|-----------|


  F#°adG+/B   Em   D6     Cmaj7B7b9    Em   Am7
  H    H      H    H      H    Q  Q    H    H
|-5----3----|-3----2----|-0----------|-----------|
|-0----0----|-0----0----|-0----1--0--|-0----1----|
|-5----0----|-0----2----|-0----2-----|-0----0----|
|-4----1----|-2----0----|------1-----|-2----2----|
|------2----|-----------|-3----2-----|-2----0----|
|-----------|-----------|------------|-----------|
|                         H    H
|
| H    H      H    H      H    H       H    H
|-5----3----|-3----2----|-7----2-----|-3---------|
|-0----4----|-5----3----|-5----0-----|-5----5----|
|-5----4----|-4----4----|-5----2-----|-4----5----|
|-4----5----|-5----0----|-5----1-----|-5----5----|
|-----------|-----------|------------|-----------|
|-----------|-----------|------------|-----------|


             2nd & 4th Verses
  Em          Em/G D6     Cmaj7B7b9    Em   D#°
  W           H    H      H    Q  Q    H    H
|-0--------||-0----2----|-0----------|-0----2----|
|-0--------||-0----0----|-0----1--0--|-0----1----|
|-0--------||-0----2----|-0----2-----|-0----2----|
|-2--------||-2----0----|------1-----|-2----1----|
|----------||-----------|-3----2-----|-----------|
|-0--------||-3---------|------------|-0---------|
|                         H    H
|
| W           H    H      H    H       H    H
|-0--------||-3----2----|-7----------|-7---------|
|-0--------||-5----3----|-5----7-----|-8----7----|
|-0--------||-4----4----|-5----5-----|-9----5----|
|-2--------||-5----0----|-5----7-----|-9----7----|
|----------||-----------|------6-----|------6----|
|----------||-----------|------------|-----------|


  F#m6 G+/B   Em   D6     Cmaj7B7     Em   Am7
  H    H      H    H      H    H      H    H
|-5----3----|-0----2----|-0---------|-----------|
|-0----0----|-0----0----|-0----0----|-0----1----|
|-5----0----|-0----2----|-0----2----|-0----0----|
|-4----1----|-2----0----|------1----|-2----2----|
|------2----|-----------|-3----2----|-2----0----|
|-----------|-0---------|-----------|-----------|
|
| H    H      H    H      H    H      H    H
|-5----3----|-3----2----|-7----2----|-3---------|
|-4----4----|-5----3----|-5----0----|-5----5----|
|-5----4----|-4----4----|-5----2----|-4----5----|
|-4----5----|-5----0----|-5----1----|-5----5----|
|-----------|-----------|-----------|-----------|
|-----------|-----------|-----------|-----------|


                                                  Chorus
  Em               Am7     Em                        G7
                              Gtr II
  W           H     H      Q    E    E    H        E e E e E e S S e
|-0--------|-^0----^0----|-0------------<12>----||---3---3---3---3-3-|
|-0--------|-^0----^1----|-0--<12>--------------||---3---3---3---3-3-|
|-0--------|-^0----^0----|-0-------<12>---------||---4---4---4---4-4-|
|-2--------|-^2----^2----|-2--------------------||---3---3---3---3-3-|
|----------|-------^0----|----------------------||---5---5---5---5-5-|
|-0--------|-^0----------|-0--------------------||-------------------|
|
| W           H     H      W                       E e E e E e S S e
|-0--------|-^0----------|-0--------------------||---3---3---3---3-3-|
|-0--------|-^0----^5----|-0--------------------||---3---3---3---3-3-|
|-0--------|-^0----^5----|-0--------------------||---4---4---4---4-4-|
|-2--------|-^2----^5----|-2--------------------||---3---3---3---3-3-|
|----------|-------------|----------------------||---5---5---5---5-5-|
|----------|-------------|----------------------||-------------------|


    Bb                  C
  E e e e e e S S e   E  e e  e e  e S  S  e
|-------------------|------------------------|
|---3---3---3---3-3-|----5----5----5----5--5-|
|---3---3---3---3-3-|----5----5----5----5--5-|
|---3---3---3---3-3-|----5----5----5----5--5-|
|---1---1---1---1-1-|----3----3----3----3--3-|
|-------------------|------------------------|
|
| E e E e E e S S e   E  e E  e E  e S  S  e
|---6---6---6---6-6-|----8----8----8----8--8-|
|---6---6---6---6-6-|----8----8----8----8--8-|
|---7---7---7---7-7-|----9----9----9----9--9-|
|---8---8---8---8-8-|---10---10---10---10-10-|
|---8---8---8---8-8-|---10---10---10---10-10-|
|-------------------|------------------------|


    G7
  E e E e E e S S e   E e E e E e S S e
|---3---3---3---3-3-|---3---3---3---3-3-|
|---3---3---3---3-3-|---3---3---3---3-3-|
|---4---4---4---4-4-|---4---4---4---4-4-|
|---3---3---3---3-3-|---3---3---3---3-3-|
|---5---5---5---5-5-|---5---5---5---5-5-|
|-------------------|-------------------|
|
| E e E e E e S S e   E e E e E e S S e
|---3---3---3---3-3-|---3---3---3---3-3-|
|---3---3---3---3-3-|---3---3---3---3-3-|
|---4---4---4---4-4-|---4---4---4---4-4-|
|---3---3---3---3-3-|---3---3---3---3-3-|
|---5---5---5---5-5-|---5---5---5---5-5-|
|-------------------|-------------------|


    Bb                  C
  E e e e e e S S e   E  e e  e e  e S  S  e
|-------------------|------------------------|
|---3---3---3---3-3-|----5----5----5----5--5-|
|---3---3---3---3-3-|----5----5----5----5--5-|
|---3---3---3---3-3-|----5----5----5----5--5-|
|---1---1---1---1-1-|----3----3----3----3--3-|
|-------------------|------------------------|
|
| E e E e E e S S e   E  e E  e E  e S  S  e
|---6---6---6---6-6-|----8----8----8----8--8-|
|---6---6---6---6-6-|----8----8----8----8--8-|
|---7---7---7---7-7-|----9----9----9----9--9-|
|---8---8---8---8-8-|---10---10---10---10-10-|
|---8---8---8---8-8-|---10---10---10---10-10-|
|-------------------|------------------------|


    G7
  E e E e E e S S e   E e E e E e S S e
|---3---3---3---3-3-|---3---3---3---3-3-|
|---3---3---3---3-3-|---3---3---3---3-3-|
|---4---4---4---4-4-|---4---4---4---4-4-|
|---3---3---3---3-3-|---3---3---3---3-3-|
|---5---5---5---5-5-|---5---5---5---5-5-|
|-------------------|-------------------|
|
| E e E e E e S S e   E e E e E e S S e
|---3---3---3---3-3-|---3---3---3---3-3-|
|---3---3---3---3-3-|---3---3---3---3-3-|
|---4---4---4---4-4-|---4---4---4---4-4-|
|---3---3---3---3-3-|---3---3---3---3-3-|
|---5---5---5---5-5-|---5---5---5---5-5-|
|-------------------|-------------------|


    Bb                  C
  E e e e e e S S e   E  e e  e e  e S  S  e
|-------------------|------------------------|
|---3---3---3---3-3-|----5----5----5----5--5-|
|---3---3---3---3-3-|----5----5----5----5--5-|
|---3---3---3---3-3-|----5----5----5----5--5-|
|---1---1---1---1-1-|----3----3----3----3--3-|
|-------------------|------------------------|
|
| E e E e E e S S e   E  e E  e E  e S  S  e
|---6---6---6---6-6-|----8----8----8----8--8-|
|---6---6---6---6-6-|----8----8----8----8--8-|
|---7---7---7---7-7-|----9----9----9----9--9-|
|---8---8---8---8-8-|---10---10---10---10-10-|
|---8---8---8---8-8-|---10---10---10---10-10-|
|-------------------|------------------------|


    G7
  E e E e E e S S e   E e E e E e S S e
|---3---3---3---3-3-|---3---3---3---3-3-|
|---3---3---3---3-3-|---3---3---3---3-3-|
|---4---4---4---4-4-|---4---4---4---4-4-|
|---3---3---3---3-3-|---3---3---3---3-3-|
|---5---5---5---5-5-|---5---5---5---5-5-|
|-------------------|-------------------|
|
| E e E e E e S S e   E e E e E e S S e
|---3---3---3---3-3-|---3---3---3---3-3-|
|---3---3---3---3-3-|---3---3---3---3-3-|
|---4---4---4---4-4-|---4---4---4---4-4-|
|---3---3---3---3-3-|---3---3---3---3-3-|
|---5---5---5---5-5-|---5---5---5---5-5-|
|-------------------|-------------------|


    Bb                  C                      G7
  E e e e e e S S e   E  e e  e e  e S  S  e   W          +W
|-------------------|------------------------|-3--------|-(3)-----||
|---3---3---3---3-3-|----5----5----5----5--5-|-3--------|-(3)----o||
|---3---3---3---3-3-|----5----5----5----5--5-|-4--------|-(4)-----||
|---3---3---3---3-3-|----5----5----5----5--5-|-3--------|-(3)-----||
|---1---1---1---1-1-|----3----3----3----3--3-|-5--------|-(5)----o||
|-------------------|------------------------|----------|---------||
|
| E e E e E e S S e   E  e E  e E  e S  S  e   W          +W
|---6---6---6---6-6-|----8----8----8----8--8-|-3--------|-(3)-----||
|---6---6---6---6-6-|----8----8----8----8--8-|-3--------|-(3)----o||
|---7---7---7---7-7-|----9----9----9----9--9-|-4--------|-(4)-----||
|---8---8---8---8-8-|---10---10---10---10-10-|-3--------|-(3)-----||
|---8---8---8---8-8-|---10---10---10---10-10-|-5--------|-(5)----o||
|-------------------|------------------------|----------|---------||


 Outro
  Wx4
|--------*|
|--------*|
|--------*|
|--------*|
|--------*|
|--------*|            
Submit corrections


        50 Ways To Leave Your Lover lessons Hard to play? Try these video lessons and learn fast 50 Ways To Leave Your Lover lessons
        
↑ Back to top | Tablatures and chords for acoustic guitar and electric guitar, ukulele, drums are parodies/interpretations of the original songs. You may use it for private study, scholarship, research or language learning purposes only