» » »

Paul Mccartney - Souvenir Bass

Artists:  A B C D E F G H I J K L M N O P Q R S T U V W X Y Z # 

Souvenir Bass

(ver. 1) Click to play this song!
Paul Mccartney
 Rating:
4/5 (4 votes)

 Souvenir lessons Tabs too difficult? Try these video lessons and learn fast
 
                ++++++++++++++++++++++++++++
| Paul McCartney- Souvenir |
++++++++++++++++++++++++++++

"Let me love you like a friend..."

Tuning: Half-Step Down (EbADG)



Verse
"When you're fed up..."
1.
G||--------------------------------------------------------------------|
D||-4~------3~------3~--------------2~------1~-------------------------|
A||-------------------------1~-----------------------------------------|
Eb|-----------------------2-------------------------0~---0-0-0~--0-2-4-|

Pre-Chorus
"If you want me..."
2.
G||----------------------------------------------------------------------------|
D||---------------------6~------6~---5h6-5h6---------------6-6-6~------6~------|
A||------------------/6-----------------------------6--------------------------|
Eb|-5~-----5-5~------------------------------5~-------5~-----------------------|

"When you're crying..."
3.
G||----------------------------------------------------------------------|
D||-4~------3~------3~-------------1-2~-------1~-------------------------|
A||-------------------------1~--------------1----------------------------|
Eb|-----------------------2---------------------------0~---0-0-0~--0-2-4-|

Pre-Chorus
"If you want me..."
4.
G||----------------/11-11-11------------------11~--------------/11~-------------------|
D||--------------------------6~-----------/11-----6~------------------6~------6~------|
A||--------------------------------6\-------------------6\----------------------------|
Eb|-5~-----5-5~----------------------5~-------------------5~--------------------------|

Chorus
"I can hold you too tight..."
5.
G||---------------3-4---------------3---------------------------------------------|
D||---------4~-----------------4~-----1-------------------------------------------|
A||-4~----------------4~-----4----------4~---x------2~------4~--------------------|
Eb|-----------------------------------------------------------------3-3-3-3x------|

Verse
"Everybody's got a handful of fear..."
6.
G||----------------------------------------------------------------------|
D||-4~-------3~------3~--------------2~-------1~-------------------------|
A||--------4-----------------1~-------------2----------------------------|
Eb|------------------------2--------------------------0~-----0-0~--0-2-4-|

Pre-Chorus
"If you want me..."
7.
G||--------------------11~--------------/11-11-11-------------------------------------------|
D||----------------/11-----6~------6~-------------6~--------6~------6-6-6-6-6-6-6-6-6-6-6-6-|
A||------------------------------------------------------/6---------------------------------|
Eb|-5~-----5-5~-----------------------------------------------------------------------------|

8.
G||----------------------|
D||-----------------4x---|
A||-------------1-4------|
Eb|-3~---5~---3----------|

Chorus
"I can hold you too tight..."
9.
G||----------------3-4---------------------------------------|
D||----------4~-----------------4~---2-1---------------------|
A||-4~-----4-----------4~-----4----------4~---x------2~------|
Eb|----------------------------------------------------------|

Outro
"If you want me..."
10.
G||-----------------------------------------------------------------------/11-11-|
D||------------------------6-6-6-6-6-6-6-6-6-6-6---------------------------------|
A||---------------------/6-------------------------4-----------6/----------------|
Eb|-5-5-5-5-5-5-5-5-5-5--------------------------3---5-5-5-5-5----5-5-5-5--------|

"Every little thing is gonna come..."
11.
G||---------------------------------------------|
D||---------------------------------------------|
A||---------------------------------------------|
Eb|-5-5-5-5-5-5-555555-555555-3~----------------|


Please rate thanks!

Lyrics:

When you're fed up shedding too many tears 
And your memory seems like just so many souvenirs 
I will come to you to ease the pain 

If you want me, tell me now 
If I can be of any help, tell me how 
Let me love you like a friend 
Everything is gonna come right in the end 

When you're crying like a poor little child 
And you feel like you never could be reconciled 
Don't forget a word of what I'm saying 

Well, I can hold you too tight 
I could never let you go 
But that wouldn't be right 
So, why don't you let me know
Let me know what you want to do 

Everybody's got a handful of fear 
But tomorrow it may only be a souvenir 
Of the way it is 'til it went away 
 
Souvenir...
 


+++++++++++
| Raileff |
+++++++++++
            
Submit corrections


        Souvenir lessons Hard to play? Try these video lessons and learn fast Souvenir lessons
        
↑ Back to top | Tablatures and chords for acoustic guitar and electric guitar, ukulele, drums are parodies/interpretations of the original songs. You may use it for private study, scholarship, research or language learning purposes only