Home » P » Paul Mccartney »

Paul Mccartney - My Brave Face Bass

Artists:  A B C D E F G H I J K L M N O P Q R S T U V W X Y Z # 

My Brave Face Bass

(ver. 1) Click to play this song!
Paul Mccartney
    1     2     3     4     1     2     3     4      1     2     3     4     1     2     3     4

  G| ----- ----- ----- ----- ----- ----- ----- -----| ----- ----- ----- ----- ----- ----- ----- -----|
  D|------------------------------------------------|------------------------------------------------|
  A|------------------------------------------------|------------------------------------------------|
  E|------------------------------------------------|------------------------------------------------|


  G| ----- ----- ----- ----- ----- ----- ----- -----| ----- ----- ----- ----- ----- ----- ----- -----|
  D|------------14-11----11-------------14-11----11-|------------14-11----11-------------14-11----11-|
  A|------------------14----------------------14----|------------------14----------------------14----|
  E|12----------------------12----------------------|12----------------------12----------------------|

   (I've been living in style...)

  G| ----- ----- ----- ----- ----- ----- ----- -----| ----- ----- ----- ----- ----- ----- ----- -----|
  D|------------14-11----11--------------11----11---|------------11----11----------------14-11----11-14|
  A|------------------14-------------------14-------|---------------14-------------------------14----|
  E|12-------12-------------12-------12-------------|12-------12-------------12-------12-------------|


  G| ----- ----- ----- ----- ----- ----- ----- -----| ----- ----- ----- ----- ----- ----- ----- -----|
  D|------------11----11----------------14-11-11-14-14-----------------------------------------------|
  A|---------------14------------------------14-----|12-------12-12-12-11-11-9--------9--------------|
  E|12-------12-------------12-------12-------------|------------------------------------7-----\-----|

                                                    (I've been doing the rounds...)
                                                     
  G| ----- ----- ----- ----- ----- ----- ----- -----| ----- ----- ----- ----- ----- ----- ----- -----|
  D|------------11----11----------------11----11-14-|------------11----11----------------11----11----|
  A|---------------14----------------------14-------|---------------14----------------------14-------|
  E|12--------12-------------12------12-------------|12-------12-------------12-------12-------------|


  G| ----- ----- ----- ----- ----- ----- ----- -----| ----- ----- ----- ----- ----- ----- ----- -----|
  D|------------11----11----------------11----11-14-|------------11----11----------------11----11-14-|
  A|---------------14----------------------14-------|---------------14----------------------14-------|
  E|12-------12-------------12-------12-------------|12-------12-------------12-------12-------------|



  G| ----- ----- ----- ----- ----- ----- ----- -----| ----- ----- ----- ----- ----- ----- ----- -----|
  D|------------------------------------------------|------------14-11----11-------------14-11----11-|
  A|12-------12-0--0--11-11-9--------9--------------|------------------14----------------------14----|
  E|------------------------------------7-----\-----|12-------12-------------12--------12------------|

   (Ever since you went away...)

  G| ----- ----- ----- ----- ----- ----- ----- -----| ----- ----- ----- ----- ----- ----- ----- -----|
  D|------------11----11----------------11----11----|------------------------------------------------|
  A|---------------11----11----------------11----11-|12-------12-12-------14-------------------------|
  E|9-----------------------9-----------------------|------------------------12-------12-12----------|

  
  G| ----- ----- ----- ----- ----- ----- ----- -----| ----- ----- ----- ----- ----- ----- ----- -----|
  D|------------------------11-------11-------------|------------------------------------------------|
  A|------------11-------11-------------11-------11-|12-------12-12-------12-12-12-------12----12-/--|
  E|9--------9--------------------------------------|---------------------------------12-------------|

   (Now that I'm alone again...)

  G| ----- ----- ----- ----- ----- ----- ----- -----| ----- ----- ----- ----- ----- ----- ----- -----|
  D|------------------------------------------------|------------------------------------------------|
  A|7--------7--------------7--------7--------------|7--------7--------------7--------7--------------|
  E|------------7-----------------------7-----------|------------7-----------------------7-----------|

  
  G| ----- ----- ----- ----- ----- ----- ----- -----| ----- ----- ----- ----- ----- ----- ----- -----|
  D|------------------------------------------------|------------------------------------------------|
  A|7--------7--6-----------4--------4--4--4--------|4--------4--------------------------------------|
  E|------------------------------------------------|------------4--------4--2--------2--2-----------|

   (Where I can't find My Brave Face...)

  G| ----- ----- ----- ----- ----- ----- ----- -----| ----- ----- ----- ----- ----- ----- ----- -----|
  D|------------------------------------------------|------------------------------------------------|
  A|------------------------------------7--7--7--7--|------------------------------------------------|
  E|2--0--2-----4--2--4-----5--4--5-----------------|5--5--5-----4--4--4-----2--2--2-----0--0--0-----|

  
  G| ----- ----- ----- ----- ----- ----- ----- -----| ----- ----- ----- ----- ----- ----- ----- -----|
  D|------------------------------------------------|------------14-11----11-------------14-11----11-14|
  A|------------------------------------------------|------------------14----------------------14----|
  E|5--5--5-----4--4--4-----2-----------------------|12-------12-------------12--------12------------|

   (Solo)

  G| ----- ----- ----- ----- ----- ----- ----- -----| ----- ----- ----- ----- ----- ----- ----- -----|
  D|------------------------------------------------|------------------------------------------------|
  A|12-------12-11-------11-9--------9--9-----------|12-------12-11-------11-9-----------9-----------|
  E|------------------------------------------------|------------------------------------------------|

  
  G| ----- ----- ----- ----- ----- ----- ----- -----|9----- ----- ----- ----- ----- ----- ----- -----|
  D|---------------------------------------6-\9-----|------------------------------------------------|
  A|7-----------------------------------------------|------------------------------------------------|
  E|------------------------------------------------|------------------------------------------------|

   (I've been living a lie...)

  G| ----- ----- ----- ----- ----- ----- ----- -----| ----- ----- ----- ----- ----- ----- ----- -----|
  D|------------14-11----11--------------11----11-14|------------11----11----------------14-11----11-|
  A|------------------14-------------------14-------|---------------14-------------------------14----|
  E|12-------12-------------12-------12-------------|12-------12-------------12-------12-------------|


  G| ----- ----- ----- ----- ----- ----- ----- -----| ----- ----- ----- ----- ----- ----- ----- -----|
  D|------------11----11----------------------------|------------------------------------------------|
  A|---------------14-------------------------------|------------------------------------------------|
  E|12-------12-------------------12----/------7----|5-----------5--5--4--4--2-----\-----7-----------|

  
  G| ----- ----- ----- ----- ----- ----- ----- -----| ----- ----- ----- ----- ----- ----- ----- -----|
  D|------------11----11-14-------------11----11----|------------------------------------------------|
  A|---------------14----------------------14-------|------------------------------------------------|
  E|12-------12-------------12-12-12-12-------------|------------------------------------------------|

   (Ever since you went away...)

  G| ----- ----- ----- ----- ----- ----- ----- -----| ----- ----- ----- ----- ----- ----- ----- -----|
  D|------------11----11----------------11----11----|------------------------------------------------|
  A|---------------11----11----------------11----11-|12-------12-12-------14-------------------------|
  E|9-----------------------9--------9--------------|------------------------12-------12-12----------|


  G| ----- ----- ----- ----- ----- ----- ----- -----| ----- ----- ----- ----- ----- ----- ----- -----|
  D|------------------------11--11---11-------------|------------------------------------------------|
  A|------------11----------------------11--11---11-|12-------12-12----------12-------12-12----12-/--|
  E|9--------9--------------------------------------|---------------------12-------------------------|

   (Now that I'm alone again...)

  G| ----- ----- ----- ----- ----- ----- ----- -----| ----- ----- ----- ----- ----- ----- ----- -----|
  D|------------------------------------------------|------------------------------------------------|
  A|7--------7--------------7--------7--------------|7--------7--------------7--------7--------------|
  E|------------7-----------------------7-----------|------------7-----------------------7-----------|


  G| ----- ----- ----- ----- ----- ----- ----- -----| ----- ----- ----- ----- ----- ----- ----- -----|
  D|14-14141414-13--13-13---11----/-----6-----------|------------------------------------------------|
  A|------------------------------------------------|4-----------4-----3-----2--------2--2-----------|
  E|------------------------------------------------|------------------------------------------------|

  (Where I can't find My Brave Face...)

  G| ----- ----- ----- ----- ----- ----- ----- -----| ----- ----- ----- ----- ----- ----- ----- -----|
  D|------------------------------------------------|------------------------------------------------|
  A|------------------------------------7--7--7--7--|---------------------------------------2\-7-----|
  E|2--0--2--0--4--2--4--2--5--4--5--4--------------|5--5--5-----4--4--4-----2--2--2-----0-----------|


  G| ----- ----- ----- ----- ----- ----- ----- -----| ----- ----- ----- ----- ----- ----- ----- -----|
  D|7--7--7-----6--6--6-----4-----------------------|7--------7--6-----------4--------4--4--------4--|
  A|------------------------------------------------|------------------------------------------------|
  E|------------------------------------------------|------------------------------------------------|

                             (My Brave Face)

  G| ----- ----- ----- ----- ----- ----- ----- -----| ----- ----- ----- ----- ----- ----- ----- -----|
  D|------------------------------------------------|---------------------------------------6-\9-----|
  A|4--------4--2--------2--0-----------0-----------|------------------------------------------------|
  E|------------------------------------------------|0-----------------------------------------------|


  G|9----- ----- ----- ----- ----- ----- ----- -----| ----- ----- ----- ----- ----- ----- ----- -----|
  D|---------------7--------------------------------|------------------------------------------------|
  A|------------------9--7--------------------------|------------------------------------------------|
  E|------------------------0-----------------------|------------------------------------------------|            
Submit corrections

↑ Back to top | Tablatures and chords for acoustic guitar and electric guitar, ukulele, drums are parodies/interpretations of the original songs. You may use it for private study, scholarship, research or language learning purposes only