» » »

Paul Mccartney - Kansas City Bass

Artists:  A B C D E F G H I J K L M N O P Q R S T U V W X Y Z # 

Kansas City Bass

(ver. 1) Click to play this song!
Paul Mccartney
 Rating:
4.3/5 (6 votes)
                [Intro]
G|---------------------------------|---------------------------------|
D|------------------------2------2-|5-------2------------------------|
A|--------2-------5----------------|----------------5-------2---5----|
E|3--------------------------------|---------------------------------|

G|---------------------------------|---------------------------------|
D|------------------------2------2-|5-------2------------------------|
A|--------2-------5----------------|----------------5-------2---5----|
E|3--------------------------------|---------------------------------|

[Chorus]
G|---------------------------------|---------------------------------|
D|------------------------2------2-|5-------2------------------------|
A|--------2-------5----------------|----------------5-------2---5----|
E|3--------------------------------|---------------------------------|

G|---------------------------------|---------------------------------|
D|------------------------2------2-|5-------2------------------------|
A|--------2-------5----------------|----------------5-------2---5----|
E|3--------------------------------|---------------------------------|

G|---------------------------------|---------------------------------|
D|--------2-------5-------2---5----|--------2-------5-------2---5----|
A|3--------------------------------|3--------------------------------|
E|---------------------------------|---------------------------------|

G|---------------------------------|---------------------------------|
D|------------------------2------2-|5-------2------------------------|
A|--------2-------5----------------|----------------5-------2---2----|
E|3--------------------------------|---------------------------------|

G|---------------------------------|---------------------------------|
D|--------4-------7-------4---7----|--------2-------3-------4--------|
A|5--------------------------------|3--------------------------------|
E|---------------------------------|---------------------------------|

G|---------------------------------|---------------------------------|
D|---------------------------------|---------------------------------|
A|--------2-------3-------4--------|5-------3-------2-------0--------|
E|3--------------------------------|---------------------------------|

[Verse]
G|---------------------------------|---------------------------------|
D|------------------------2------2-|5-------2------------------------|
A|--------2-------5----------------|----------------5-------2---5----|
E|3--------------------------------|---------------------------------|

G|---------------------------------|---------------------------------|
D|------------------------2------2-|5-------2------------------------|
A|--------2-------5----------------|----------------5-------2---5----|
E|3--------------------------------|---------------------------------|

G|---------------------------------|---------------------------------|
D|--------2-------5-------2---5----|--------2-------3-------4--------|
A|3--------------------------------|3--------------------------------|
E|---------------------------------|---------------------------------|

G|---------------------------------|---------------------------------|
D|5-------3------------------------|---------------------------------|
A|----------------7-------5--------|--------2-------3-------4--------|
E|---------------------------------|3--------------------------------|

G|---------------------------------|---------------------------------|
D|--------4-------7-------4---7----|--------2-------3-------4-----4--|
A|5--------------------------------|3--------------------------------|
E|---------------------------------|---------------------------------|

G|---------------------------------|---------------------------------|
D|5-------3------------------------|---------------------------------|
A|----------------7-------6-----6--|5-----5-5-----5-5-----5-5------5-|
E|---------------------------------|---------------------------------|

G|---------------------------------|---------------------------------|
D|------------------------2------2-|5-------2------------------------|
A|--------2-------5----------------|----------------5-------2---5----|
E|3--------------------------------|---------------------------------|

G|---------------------------------|---------------------------------|
D|------------------------2------2-|5-------3------------------------|
A|--------2-------5----------------|----------------7-------5--------|
E|3--------------------------------|---------------------------------|

G|---------------------------------|---------------------------------|
D|---------------------------------|--------2-------3-------4------4-|
A|3-------1-------0----------------|3--------------------------------|
E|------------------------3------3-|---------------------------------|

G|---------------------------------|---------------------------------|
D|5-------3------------------------|---------------------------------|
A|----------------7-------5--------|--------2-------3-------4--------|
E|---------------------------------|3--------------------------------|

G|---------------------------------|---------------------------------|
D|--------4-------7-------4---7----|--------2-------3-------4--------|
A|5--------------------------------|3--------------------------------|
E|---------------------------------|---------------------------------|

G|---------------------------------|---------------------------------|
D|5-------3------------------------|---------------------------------|
A|----------------7-------6--------|5-----5-5-----5-5-----5-5------5-|
E|---------------------------------|---------------------------------|

[Interlude]
G|---------------------------------|---------------------------------|
D|---------------------------------|---------------------------------|
A|---------------------------------|---------------------------------|
E|3--------------------------------|3--------------------------------|

G|---------------------------------|---------------------------------|
D|---------------------------------|---------------------------------|
A|---------------------------------|---------------------------------|
E|3--------------------------------|---------------------------------|

[Chorus]
G|---------------------------------|---------------------------------|
D|--------2-----2-5-------2---5----|--------2-------5-------2---5----|
A|3--------------------------------|3--------------------------------|
E|---------------------------------|---------------------------------|

G|---------------------------------|---------------------------------|
D|---------------------------------|---------------------------------|
A|--------2-------5-------2---5----|--------2-------3-------4--------|
E|3--------------------------------|3--------------------------------|

G|---------------------------------|---------------------------------|
D|--------4-------7-------4---7----|--------2-------3-------4--------|
A|5--------------------------------|3--------------------------------|
E|---------------------------------|---------------------------------|

G|---------------------------------|---------------------------------|
D|5-------3------------------------|---------------------------------|
A|----------------7-------6--------|5-----5-5-----5-5-----5-5------5-|
E|---------------------------------|---------------------------------|

[Solo]
G|---------------------------------|---------------------------------|
D|------------------------2------2-|5-------3------------------------|
A|--------2-------5----------------|----------------7-------5--------|
E|3--------------------------------|---------------------------------|

G|---------------------------------|---------------------------------|
D|------------------------2------2-|---------------------------------|
A|--------2-------5----------------|---------------------------------|
E|3--------------------------------|3-------3-------3-------3--------|

G|---------------------------------|---------------------------------|
D|---------------------------------|---------------------------------|
A|3-------3-------3-------3------3-|3--------------------------------|
E|---------------------------------|--------0-------1-------2--------|

G|---------------------------------|---------------------------------|
D|------------------------2------2-|5--------------------------------|
A|--------2-----2-5----------------|--------2-------3-------4--------|
E|3-----3--------------------------|---------------------------------|

G|---------------------------------|---------------------------------|
D|--------4-------7-------4---7----|--------2-------3-------4--------|
A|5--------------------------------|3--------------------------------|
E|---------------------------------|---------------------------------|

G|---------------------------------|---------------------------------|
D|5-------3------------------------|---------------------------------|
A|----------------7-------6--------|5-----5-5-----5-5-----5-5------5-|
E|---------------------------------|---------------------------------|

[Interlude]
G|---------------------------------|---------------------------------|
D|---------------------------------|---------------------------------|
A|---------------------------------|---------------------------------|
E|3--------------------------------|3--------------------------------|

G|---------------------------------|---------------------------------|
D|---------------------------------|---------------------------------|
A|---------------------------------|---------------------------------|
E|3--------------------------------|---------------------------------|

[Chorus]
G|---------------------------------|---------------------------------|
D|---------------------------------|---------------------------------|
A|3-------3------------------------|3-------3------------------------|
E|----------------0-------0--------|----------------0-------1--------|

G|---------------------------------|---------------------------------|
D|------------------------2------2-|5--------------------------------|
A|--------2-------5----------------|--------2-------3-------4--------|
E|3--------------------------------|---------------------------------|

G|---------------------------------|---------------------------------|
D|--------4-------7----------------|---------------------------------|
A|5-----------------------5------5-|3--------------------------------|
E|---------------------------------|--------0-------1-------2--------|

G|---------------------------------|---------------------------------|
D|---------------------------------|---------------------------------|
A|--------2-------3-------4--------|5-----5-5-----5-5-----5-5--------|
E|3--------------------------------|---------------------------------|

[Solo]
G|---------------------------------|---------------------------------|
D|---------------------------------|---------------------------------|
A|--------2-------3-------4--------|5-------3-------2-------1------1-|
E|3--------------------------------|---------------------------------|

G|---------------------------------|---------------------------------|
D|---------------------------------|--------2-------3-------5--------|
A|--------2-------3-------4--------|5--------------------------------|
E|3--------------------------------|---------------------------------|

G|---------------------------------|---------------------------------|
D|--------2-------5-------2---5----|---------------------------------|
A|3--------------------------------|3--------------------------------|
E|---------------------------------|--------0-------1-------2--------|

G|---------------------------------|---------------------------------|
D|------------------------2---3----|5--------------------------------|
A|--------2-------5----------------|--------2-------3-------4--------|
E|3--------------------------------|---------------------------------|

G|---------------------------------|---------------------------------|
D|--------4-------7-------4---7----|--------2-------5-------2---5----|
A|5--------------------------------|3--------------------------------|
E|---------------------------------|---------------------------------|

G|---------------------------------|---------------------------------|
D|---------------------------------|---------------------------------|
A|--------2-------3-------4--------|5-----5-5-----5-5-----5-5--------|
E|3--------------------------------|---------------------------------|

[Chorus]
G|---------------------------------|---------------------------------|
D|------------------------2------2-|5-------2------------------------|
A|--------2-------5----------------|----------------5-------2---5----|
E|3--------------------------------|---------------------------------|

G|---------------------------------|---------------------------------|
D|---------------------------------|---------------------------------|
A|--------2-------5-------2---5----|--------2-------5-------3---2----|
E|3--------------------------------|3--------------------------------|

G|---------------------------------|---------------------------------|
D|2-------5-------2---2---5--------|--------2-------3-------4--------|
A|---------------------------------|3-----3--------------------------|
E|---------------------------------|---------------------------------|

G|---------------------------------|---------------------------------|
D|5-------3-----3------------------|---------------------------------|
A|----------------7-------5------5-|--------2-------3-------4--------|
E|---------------------------------|3--------------------------------|

G|---------------------------------|---------------------------------|
D|--------4-------7-------4---7----|---------------------------------|
A|5--------------------------------|3--------------------------------|
E|---------------------------------|--------0-------1-------2--------|

G|---------------------------------|---------------------------------|
D|---------------------------------|---------------------------------|
A|--------2-------3-------4--------|5-----5-5-----5-5-----5-5------5-|
E|3--------------------------------|---------------------------------|

G|---------------------------------|---------------------------------|
D|---------------------------------|---------------------------------|
A|--------2-------5-------2---5----|--------2-------5-------3---2----|
E|3--------------------------------|3--------------------------------|

G|---------------------------------|---------------------------------|
D|------------------------2--------|5-------3------------------------|
A|--------2-------5----------------|----------------7-------5---\----|
E|3--------------------------------|---------------------------------|

G|---------------------------------|---------------------------------|
D|---------------------------------|---------------------------------|
A|3--------------------------------|3--------------------------------|
E|--------0-------3-------0---3----|--------0-------1-------2--------|

G|---------------------------------|---------------------------------|
D|------------------------2--------|5-------3------------------------|
A|--------2-------5----------------|----------------7-------5--------|
E|3--------------------------------|---------------------------------|

G|---------------------------------|---------------------------------|
D|--------4-------7-------4---7----|--------2-------3-------4--------|
A|5--------------------------------|3--------------------------------|
E|---------------------------------|---------------------------------|

G|---------------------------------|---------------------------------|
D|5-------3------------------------|---------------------------------|
A|----------------7-------6--------|5-----5-5-----5-5-----5-5------5-|
E|---------------------------------|---------------------------------|

G|---------------------------------|---------------------------------|
D|------------------------2------2-|5-------2------------------------|
A|--------2-------5----------------|----------------5-------2---5----|
E|3--------------------------------|---------------------------------|

G|---------------------------------|---------------------------------|
D|---------------------------------|---------------------------------|
A|--------2-------5-------2---5----|--------0-------1-------2--------|
E|3--------------------------------|3--------------------------------|

G|---------------------------------|---------------------------------|
D|---------------------------------|---------------------------------|
A|3--------------------------------|3--------------------------------|
E|--------0-----/-3-------5--------|--------5-------0-------3--------|

G|---------------------------------|---------------------------------|
D|---------------------------------|--------3-------5-------3--------|
A|--------2-------3-------4--------|5--------------------------------|
E|3--------------------------------|---------------------------------|

G|---------------------------------|---------------------------------|
D|--------4-------7-------4---7----|--------2-------3-------4--------|
A|5--------------------------------|3--------------------------------|
E|---------------------------------|---------------------------------|

G|---------------------------------|---------------------------------|
D|5-------3------------------------|---------------------------------|
A|----------------7-------5--------|5-----5-5-----5-5-----5-5--------|
E|---------------------------------|---------------------------------|

G|---------------------------------|---------------------------------|
D|------------------------2------2-|5-------2------------------------|
A|--------2-------5----------------|----------------5-------2---5----|
E|3--------------------------------|---------------------------------|

G|---------------------------------|---------------------------------|
D|------------------------2------2-|5-------3------------------------|
A|--------2-------5----------------|----------------7-------5---\----|
E|3--------------------------------|---------------------------------|

G|---------------------------------|---------------------------------|
D|---------------------------------|---------------------------------|
A|3-------3-------1-------1--------|---------------------------------|
E|---------------------------------|5-------5-------4-------4--------|

G|---------------------------------|---------------------------------|
D|---------------------------------|--------5-------3-------2--------|
A|--------2-------3-------4--------|5--------------------------------|
E|3--------------------------------|---------------------------------|

G|---------------------------------|---------------------------------|
D|--------4-------7-------4---7----|--------2-------3-------4--------|
A|5--------------------------------|3--------------------------------|
E|---------------------------------|---------------------------------|            
Submit corrections

↑ Back to top | Tablatures and chords for acoustic guitar and electric guitar, ukulele, drums are parodies/interpretations of the original songs. You may use it for private study, scholarship, research or language learning purposes only