» » »

Paul Mccartney - Figure Of Eight Bass

Artists:  A B C D E F G H I J K L M N O P Q R S T U V W X Y Z # 

Figure Of Eight Bass

(ver. 1) Click to play this song!
Paul Mccartney
 Rating:
4.3/5 (25 votes)
                Intro : 00:06
G|---------------------------------|---------------------------------|
D|2---2---4-------2---2---4--------|5-------5---4-------4---4--------|
A|---------------------------------|---------------------------------|
E|---------------------------------|---------------------------------|

G|---------------------------------|---------------------------------|
D|----2---4-------2---2---4--------|5-------5---4--------------------|
A|---------------------------------|---------------------------------|
E|---------------------------------|--------------------2---2--------|

Verse 1 :
G|---------------------------------|---------------------------------|
D|---------------------------------|---------------------------------|
A|---------------------------------|---------------------------------|
E|0---0---0---0---0---0---0---0----|0---0---0---0---0---0---0---7-\--|

G|---------------------------------|---------------------------------|
D|---------------------------------|---------------------------------|
A|---------------------------------|---------------------------------|
E|0---0---0---0---0---0---0---0----|0---0---0---0---0---0---4---4----|

G|---------------------------------|---------------------------------|
D|---------------------------------|---------------------------------|
A|2---2---2---2---2---2---2---2-/--|4---4---4---4---4---4---4---\----|
E|---------------------------------|---------------------------------|

G|---------------------------------|---------------------------------|
D|---------------------------------|---------------------------------|
A|0---0---0---0---0---0---0---0-/--|2---2---2---2---2---2---2---2----|
E|---------------------------------|---------------------------------|

G|---------------------------------|
D|---------------------------------|
A|2---2---2---2---2---2---2---2----|
E|---------------------------------|

G|---------------------------------|---------------------------------|
D|---------------------------------|---------------------------------|
A|---------------------------------|---------------------------------|
E|0---0---0---0---0---0---0---0----|0---0---0---0---0---0---0---0----|

G|---------------------------------|---------------------------------|
D|---------------------------------|---------------------------------|
A|---------------------------------|---------------------------------|
E|0---0---0---0---0---0---0---0----|0---0---0---0---0---0---4---4----|

G|---------------------------------|---------------------------------|
D|---------------------------------|---------------------------------|
A|2---2---2---2---2---2---2---2----|4---4---4---4---4---4---2---2----|
E|---------------------------------|---------------------------------|

G|---------------------------------|---------------------------------|
D|---------------------------------|---------------------------------|
A|0---0---0---0---0---0---0---0-/--|2---2---2---2---2---2---2---2----|
E|---------------------------------|---------------------------------|

G|---------------------------------|
D|---------------------------------|
A|2---2---2---2---2---2---2---2----|
E|---------------------------------|

Chorus :
G|---------------------------------|---------------------------------|
D|---------------------------------|---------------------------------|
A|---------------------------------|---------------------------------|
E|5---5---5---5---5---5---5---5----|5---5---5---5---5---5---5---5----|

G|---------------------------------|---------------------------------|
D|---------------------------------|---------------------------------|
A|---------------------------------|4---4---4---4---4---4---4---4----|
E|4---4---4---4---4---4---4---4----|---------------------------------|

G|---------------------------------|---------------------------------|
D|---------------------------------|---------------------------------|
A|---------------------------------|---------------------------------|
E|5---5---5---5---5---5---5---5----|5---5---5---5---5---5---5---5----|

G|---------------------------------|---------------------------------|
D|---------------------------------|---------------------------------|
A|---------------------------------|---------------------------------|
E|4---4---4---4---2---2---2---2----|0---0---0---0---7---7---7---7----|

G|---------------------------------|---------------------------------|
D|---------------------------------|---------------------------------|
A|---------------------------------|---------------------------------|
E|5---5---5---5---5---5---5---5----|5---5---5---5---5---5---5---5----|

G|---------------------------------|---------------------------------|
D|---------------------------------|---------------------------------|
A|---------------------------------|4---4---4---4---4---4---4---4----|
E|4---4---4---4---4---4---4---4----|---------------------------------|

G|---------------------------------|---------------------------------|
D|---------------------------------|---------------------------------|
A|---------------------------------|2--------------------------------|
E|2---2---2---2---2---2---2---2----|---------------------------------|

Interlude :
G|---------------------------------|---------------------------------|
D|---------------------------------|---------------------------------|
A|---------------------------------|---------------------------------|
E|0---0---2-------0---0---2--------|3-------3---2-------2---2--------|

G|---------------------------------|---------------------------------|
D|---------------------------------|---------------------------------|
A|---------------------------------|---------------------------------|
E|----0---2-------0---0---2--------|3-------3---2-------2---2---/----|

Bridge :
G|---------------------------------|---------------------------------|
D|---------------------------------|---------------------------------|
A|---------------------------------|---------------------------------|
E|7---7---7---7---7---7---7---\----|5---5---5---5---5---5---5---5----|

G|---------------------------------|---------------------------------|
D|---------------------------------|---------------------------------|
A|---------------------------------|---------------------------------|
E|5---5---5---5---5---5---5---4----|0---0---0---0---0---0---0---4----|

G|---------------------------------|---------------------------------|
D|---------------------------------|---------------------------------|
A|2---2---2---2---2---2---2---2----|---------------------------------|
E|---------------------------------|2---2---2---2---2---2---2---2----|

G|---------------------------------|---------------------------------|
D|---------------------------------|---------------------------------|
A|2---2---2---2--------------------|2---2---2---2---2---2---2---2----|
E|----------------2---2---2---2----|---------------------------------|

Verse 2 :
G|---------------------------------|---------------------------------|
D|---------------------------------|---------------------------------|
A|---------------------------------|---------------------------------|
E|0---0---0---0---0---0---0---0----|0---0---0---0---0---0---0---0----|

G|---------------------------------|---------------------------------|
D|---------------------------------|---------------------------------|
A|---------------------------------|---------------------------------|
E|0---0---0---0---0---0---0---0----|0---0---0---0---0---0---4---4----|

G|---------------------------------|---------------------------------|
D|---------------------------------|---------------------------------|
A|2---2---2---2---2---2---2---2----|4---4---4---4---4---4---2---2----|
E|---------------------------------|---------------------------------|

G|---------------------------------|---------------------------------|
D|---------------------------------|---------------------------------|
A|0---0---0---0---0---0---0---0-/--|2---2---2---2---2---2---2---2----|
E|---------------------------------|---------------------------------|

G|---------------------------------|
D|---------------------------------|
A|2---2---2---2---2---2---2---2----|
E|---------------------------------|

Chorus :
G|---------------------------------|---------------------------------|
D|---------------------------------|---------------------------------|
A|---------------------------------|---------------------------------|
E|5---5---5---5---5---5---5---5----|5---5---5---5---5---5---5---5----|

G|---------------------------------|---------------------------------|
D|---------------------------------|---------------------------------|
A|---------------------------------|4---4---4---4---4---4---4---4----|
E|4---4---4---4---4---4---4---4----|---------------------------------|

G|---------------------------------|---------------------------------|
D|---------------------------------|---------------------------------|
A|---------------------------------|---------------------------------|
E|5---5---5---5---5---5---5---5----|5---5---5---5---5---5---5---5----|

G|---------------------------------|---------------------------------|
D|---------------------------------|---------------------------------|
A|---------------------------------|---------------------------------|
E|4---4---4---4---2---2---2---2----|0---0---0---0---7---7---7---7----|

G|---------------------------------|---------------------------------|
D|---------------------------------|---------------------------------|
A|---------------------------------|---------------------------------|
E|5---5---5---5---5---5---5---5----|5---5---5---5---5---5---5---5----|

G|---------------------------------|---------------------------------|
D|---------------------------------|---------------------------------|
A|------------------------2---3----|4---4---4---4---4---4---4---4----|
E|4---4---4---4---4---4------------|---------------------------------|

G|---------------------------------|---------------------------------|
D|---------------------------------|---------------------------------|
A|---------------------------------|2--------------------------------|
E|2---2---2---2---2---2---2---2----|---------------------------------|

Outro :
G|---------------------------------|---------------------------------|
D|2---2---4-------2---2---4--------|5-------5---4-------4---4--------|
A|---------------------------------|---------------------------------|
E|---------------------------------|---------------------------------|

G|---------------------------------|---------------------------------|
D|----2---4-------2---2---4--------|5-------5---4--------------------|
A|---------------------------------|---------------------------------|
E|---------------------------------|--------------------2---2--------|

G|---------------------------------|---------------------------------|
D|2---2---4-------2---2---4--------|5-------5---4-------4---4--------|
A|---------------------------------|---------------------------------|
E|---------------------------------|---------------------------------|

G|---------------------------------|---------------------------------|
D|----2---4-------2---2---4--------|5-------5---4--------------------|
A|---------------------------------|---------------------------------|
E|---------------------------------|--------------------2---2--------|

Repeat this until the end :
G|---------------------------------|---------------------------------|
D|---------------------------------|---------------------------------|
A|---------------------------------|---------------------------------|
E|0---0---2-------0---0---2--------|3-------3---2-------2---2--------|

G|---------------------------------|---------------------------------|
D|---------------------------------|---------------------------------|
A|---------------------------------|---------------------------------|
E|----0---2-------0---0---2--------|3-------3---2-------2---2--------|
            
Submit corrections

↑ Back to top | Tablatures and chords for acoustic guitar and electric guitar, ukulele, drums are parodies/interpretations of the original songs. You may use it for private study, scholarship, research or language learning purposes only