Home » P » Paul Mccartney »

Paul Mccartney - Every Night Bass

Artists:  A B C D E F G H I J K L M N O P Q R S T U V W X Y Z # 

Every Night Bass

(ver. 1) Click to play this song!
Paul Mccartney
Intro :
G|---------------------------------|---------------------------------|
D|---------------------------------|---------------------------------|
A|---------------------------------|7---7-------7-------7--\---------|
E|---------------------------------|---------------------------------|

G|---------------------------------|---------------------------------|
D|---------------------------------|---------------------------------|
A|7---7-------7-------7--\---------|7---7-------7-------7--\---------|
E|---------------------------------|---------------------------------|

Verse 1 :
G|---------------------------------|---------------------------------|
D|---------------------------------|---------------------------------|
A|7---7-------7-------7--\---------|7---7-------7-------7--\---------|
E|---------------------------------|---------------------------------|

G|---------------------------------|---------------------------------|
D|---------------------------------|---------------------------------|
A|7---7-------7-------7--\---------|7---7-------7-------7--\---------|
E|---------------------------------|---------------------------------|

G|---------------------------------|---------------------------------|
D|---------------------------------|---------------------------------|
A|7---7-------7-------7--\---------|7---7-------7-------4---2--------|
E|---------------------------------|----------------------------4----|

Chorus :
G|---------------------------------|---------------------------------|
D|----------------4---4-------4----|---------------------------------|
A|---------------------------------|2---2-------2---2---2---2---2----|
E|5---5-------5--------------------|---------------------------------|

G|---------------------------------|---------------------------------|
D|------------------------5--------|9-----------7-------6------------|
A|------------4--------------------|----------------------------9----|
E|2---2----------------------------|---------------------------------|

G|---------------------------------|---------------------------------|
D|---------------------------------|---------------------------------|
A|7---7-------7-------7--\---------|7---7-------7-------7--\---------|
E|---------------------------------|---------------------------------|

G|--------------------11-----------|---------------------------------|
D|4---4-----/-11-------------------|---------------------------------|
A|---------------------------------|2---2---2------------------------|
E|---------------------------------|---------------------------------|

Interlude :
G|---------------------------------|---------------------------------|
D|---------------------------------|---------------------------------|
A|7-----------------------\--------|---------------------------------|
E|---------------------------------|0--------------------------------|

G|---------------------------------|---------------------------------|
D|------------------------4---6----|7-----------7-------7---6---4----|
A|7---7-------7---7---7------------|--------7-------7----------------|
E|---------------------------------|---------------------------------|

G|---------------------------------|---------------------------------|
D|---------------------------------|---------------------------------|
A|7---7-------7---7---7---6---4----|2---2-------2---2-------2---6----|
E|---------------------------------|---------------------------------|

G|---------------------------------|---------------------------------|
D|------------------------4---6----|7---7-----------7---7---6---4----|
A|7---7-------7-------7------------|---------------------------------|
E|---------------------------------|---------------------------------|

G|---------------------------------|---------------------------------|
D|---------------------------------|---------------------------------|
A|7---7-------7-------7---6---4----|2---2---------------2---4---6----|
E|---------------------------------|---------------------------------|

G|---------------------------------|---------------------------------|
D|---------------------------------|---------------------------------|
A|7---7-------7-------7--\---------|7---7-------7-------7--\---------|
E|---------------------------------|---------------------------------|

Verse 2 :
G|---------------------------------|---------------------------------|
D|---------------------------------|---------------------------------|
A|7---7-------7-------7--\---------|7---7-------7-------7--\---------|
E|---------------------------------|---------------------------------|

G|---------------------------------|---------------------------------|
D|---------------------------------|---------------------------------|
A|7---7-------7-------7--\---------|7---7-------7-------4---2--------|
E|---------------------------------|----------------------------4----|

G|---------------------------------|---------------------------------|
D|---------------------------------|---------------------------------|
A|------------7-------7------------|7---7-------7-------4---2--------|
E|0---0----------------------------|----------------------------4----|

Chorus :
G|---------------------------------|---------------------------------|
D|----------------4---4-------4----|---------------------------------|
A|---------------------------------|2---2-------2---------------2----|
E|5---5-------5--------------------|---------------------------------|

G|---------------------------------|---------------------------------|
D|------------------------5--------|------------7-------6------------|
A|------------4--------------------|----------------------------9----|
E|2---2----------------------------|7--------------------------------|

G|--------9-9----------------------|----9-9---9--\-------------------|
D|---------------------------------|---------------------------------|
A|7---7-----------------------6----|7-------------7---------7--------|
E|----------------7----------------|--------------------7------------|

G|--------------------11-----------|---------------------------------|
D|4---------/-11--------------4----|---------------------------------|
A|----0----------------------------|2---2---2------------------------|
E|---------------------------------|---------------------------------|

Interlude :
G|---------------------------------|---------------------------------|
D|---------------------------------|---------------------------------|
A|7-----------------------\--------|---------------------------------|
E|---------------------------------|0--------------------------------|

G|---------------------------------|----6---6---9---9---9------------|
D|----------------------------6----|7-----------------------7---7----|
A|7---7-------7---7-------7--------|---------------------------------|
E|---------------------------------|---------------------------------|

G|---------------------------------|---------------------------------|
D|------------------------2---2----|----1---1---4---4----------------|
A|7---7-----------2---2------------|2-------------------2---2--------|
E|--------4---4--------------------|---------------------------------|

G|---------------------------------|---------------------------------|
D|--------------------2---2---2----|7--------------------------------|
A|7-----------2---2----------------|----4---4---7---7---0---0---0----|
E|----4---4------------------------|---------------------------------|

G|---------------------------------|---------------------------------|
D|---------------------------------|----1---1---4---4----------------|
A|7---7-------7-------7---7---7----|2-------------------2---2---9-\--|
E|---------------------------------|---------------------------------|

G|---------------------------------|---------------------------------|
D|---------------------------------|7-------------------7---7---7----|
A|7---7-------7-------7------------|----4---4---7---7----------------|
E|------------------------4---7----|---------------------------------|

G|---------------------------------|---------------------------------|
D|---------------------------------|----1---1---4---4-------4---4----|
A|7-------------------7---7---7\---|2--------------------------------|
E|----4---0---7--------------------|---------------------------------|

            
Submit corrections

↑ Back to top | Tablatures and chords for acoustic guitar and electric guitar, ukulele, drums are parodies/interpretations of the original songs. You may use it for private study, scholarship, research or language learning purposes only