» » »

Passion - So Sick Tabs

Artists:  A B C D E F G H I J K L M N O P Q R S T U V W X Y Z # 

So Sick Tabs

(ver. 2) Click to play this song!
Passion
 Rating:
3.7/5 (6 votes)
                (Acoustic)
(Intro)
Passion - So Sick (Acoustic)
Tuning: Standard
CAPO - 4th fret

INTRO
|--------------2--------------------------|
|-----2-------3-3--------3--------2-----2-|
|----2-2-----2----------0-0------0-----0--| 3x
|-------------------------------0-----0---|
|-1h2---------------0h2--------0-----1----|              
|---------3-------------------------------|


|---------------|
|---2h3-2h3-----|
|------2---2----| (This part repeats figure it out)
|---------------|    
|---------------|
|---3-----------| 
            
Submit corrections

↑ Back to top | Tablatures and chords for acoustic guitar and electric guitar, ukulele, drums are parodies/interpretations of the original songs. You may use it for private study, scholarship, research or language learning purposes only