» » »

Passion - More Like Jesus Tabs

Artists:  A B C D E F G H I J K L M N O P Q R S T U V W X Y Z # 

More Like Jesus Tabs

(ver. 1) Click to play this song!
Passion
 Rating:
4.3/5 (19 votes)

 More Like Jesus lessons Tabs too difficult? Try these video lessons and learn fast
 
                [Intro]
|Eb   |     |Bb   |     |Eb  |     |


e|------------------|----------------|-----------------------------------------|
B|-----------3------|----------3-----|------4---3------------------------------|
G|---2---3----------|-2---3----------|--------------3--------------------------|
D|------------------|----------------|-----------------------------------------|
A|------------------|----------------|-----------------------------------------|
E|------------------|----------------|-----------------------------------------|

Same as above but an octave higher (just an option if you feel like playing it higher)

e|------------------|----------------|-----------------------------------------|
B|------------15----|---------15-----|---16--15--------------------------------|
G|----14--15--------|-14--15---------|-----------15----------------------------|
D|------------------|----------------|-----------------------------------------|
A|------------------|----------------|-----------------------------------------|
E|------------------|----------------|-----------------------------------------|


[Bridge]

Oh Lord, change me like only you can...

e|---------------------------------------------------------------------------|
B|----18--18--18--18--16--15h16p15--15--15--13--13--13-----------------------|
G|---------------------------------------------------------------------------|
D|---------------------------------------------------------------------------|
A|---------------------------------------------------------------------------|
E|---------------------------------------------------------------------------|

More like Jesus...

e|---------------------------------------------------------------------------|
B|--8--8--8--10--10--10--11--11--11--13--13--13------------------------------|
G|---------------------------------------------------------------------------|
D|---------------------------------------------------------------------------|
A|---------------------------------------------------------------------------|
E|---------------------------------------------------------------------------|

End bit that leads into the instrumental

e|---------------------------------------------------------------------------|
B|--16--16--16--15--15--15--18--18--18--18--18--18---------------------------|
G|---------------------------------------------------------------------------|
D|---------------------------------------------------------------------------|
A|---------------------------------------------------------------------------|
E|---------------------------------------------------------------------------|



[Instrumental/Big Chorus]

e|---------------------------|------------------------------------------------|
B|----------15--15--15--15---|----------15--15--15--15------------------------|
G|--14--15-------------------|--14--15----------------------------------------|
D|---------------------------|------------------------------------------------|
A|---------------------------|------------------------------------------------|
E|---------------------------|------------------------------------------------|

e|--------------------------|--------------------------------------------------|
B|--16--16--16--15--15--15--|--------------------------------------------------|
G|--------------------------|-15--15--15--15--15--15---------------------------|
D|--------------------------|--------------------------------------------------|
A|--------------------------|--------------------------------------------------|
E|--------------------------|--------------------------------------------------|

            
Submit corrections


        More Like Jesus lessons Hard to play? Try these video lessons and learn fast More Like Jesus lessons
        
↑ Back to top | Tablatures and chords for acoustic guitar and electric guitar, ukulele, drums are parodies/interpretations of the original songs. You may use it for private study, scholarship, research or language learning purposes only