Home » P » Partibrejkers »

Partibrejkers - Sitna Lova Chords

Artists:  A B C D E F G H I J K L M N O P Q R S T U V W X Y Z # 

Sitna Lova Chords

(ver. 1) Click to play this song!
Partibrejkers
 Rating:
4/5 (4 votes)
                Glavni rif:
E|--------------------------------|
B|--5--5--3\5-x-x-x-x-------------|
G|--6--6--4\6-x-x-x-x--5h6-----0--|
D|------------------------7-------|
A|--------------------------------|
E|--------------------------------|


Rif
Prodajes se za sitnu lovu
Rif
ti bi da se dopadnes svakome kulovu
Rif
koji ne zna sta ti radis
Rif
dok se tvojim znojem sladi

E|--------------------------------|
B|--5--5--3\5-5-x-x-x-------------|
G|--6--6--4\6-6-x-x-x--5h6-----0--|
D|------------------------7-------|
A|--------------------------------|
E|--------------------------------|

Rif
Bacice ti mrvu koju
Rif
bacice ti kosku svoju
Rif
dok ti puzis, foliras
Rif
sa svojim zivotom zongliras

Refren 2x
D5
Nadji nekog ko te voli
Rif
spasi svoj zivot goli

Rif
U cemu je tvoja sustina
Rif
kada hoces da se
Rif
dopadnes svima, u cemu je

Po ledjima te tapsu
kace ti lovore
iza ledja ti se smeju
dok o tebi govore


F5                   A5 A5
spasi svoj zivot goli


            
Submit corrections

↑ Back to top | Tablatures and chords for acoustic guitar and electric guitar, ukulele, drums are parodies/interpretations of the original songs. You may use it for private study, scholarship, research or language learning purposes only