» » »

Parquet Courts - Borrowed Time Bass

Artists:  A B C D E F G H I J K L M N O P Q R S T U V W X Y Z # 

Borrowed Time Bass

(ver. 1) Click to play this song!
Parquet Courts
 Rating:
4.3/5 (29 votes)

 Borrowed Time lessons Tabs too difficult? Try these video lessons and learn fast
 
                [Intro]

G|-------------------------------------------------------------------------|
D|---5-5--5-5-5-5--5--5-5-5-5-5--5-5-5-5-5--5-5-5--3-3--3-3-3-3-3--3-3-3-3-|
A|-------------------------------------------------------------------------|
E|-------------------------------------------------------------------------|

G|----5-5--5-5-5-5-5--5-5-5-5----------------------------------------------|
D|-------------------------------------------------------------------------|(X2)
A|-------------------------------------------------------------------------|
E|-------------------------------------------------------------------------|


[Verse]

G|-------------------------------------------------------------------------|
D|---5-5--5-5-5-5--5--5-5-5-5-5--5-5-5-5-5--5-5-5--3-3--3-3-3-3-3--3-3-3-3-|
A|-------------------------------------------------------------------------|
E|-------------------------------------------------------------------------|

G|----5-5--5-5-5-5-5--5-5-5-5----------------------------------------------|
D|-------------------------------------------------------------------------|(X2)
A|-------------------------------------------------------------------------|
E|-------------------------------------------------------------------------|


[Chorus]

G|------------5-5-5-9-7\5--------5h7----------5-5-5-9-7\5-------5h7--------|
D|---3-3-3-3--------------5-5-5-------3-3-3-3-------------5-5-5------------|
A|-------------------------------------------------------------------------|
E|-------------------------------------------------------------------------|

G|-----------5-5-5-9-7\5--------5h7----------5-5-5-5-----------------------|
D|--3-3-3-3--------------5-5-5-------3-3-3-3-------------------------------|
A|-------------------------------------------------------------------------|
E|-------------------------------------------------------------------------|


[Verse]

G|-------------------------------------------------------------------------|
D|---5-5--5-5-5-5--5--5-5-5-5-5--5-5-5-5-5--5-5-5--3-3--3-3-3-3-3--3-3-3-3-|
A|-------------------------------------------------------------------------|
E|-------------------------------------------------------------------------|

G|----5-5--5-5-5-5-5--5-5-5-5----------------------------------------------|
D|-------------------------------------------------------------------------|(X4)
A|-------------------------------------------------------------------------|
E|-------------------------------------------------------------------------|


[Chorus]

G|------------5-5-5-9-7\5--------5h7----------5-5-5-9-7\5-------5h7--------|
D|---3-3-3-3--------------5-5-5-------3-3-3-3-------------5-5-5------------|
A|-------------------------------------------------------------------------|
E|-------------------------------------------------------------------------|

G|-----------5-5-5-9-7\5--------5h7----------5-5-5-5-----------------------|
D|--3-3-3-3--------------5-5-5-------3-3-3-3-------------------------------|
A|-------------------------------------------------------------------------|
E|-------------------------------------------------------------------------|


[Solo]

G|-------------------------------------------------------------------------|
D|---5-5--5-5-5-5--5--5-5-5-5-5--5-5-5-5-5--5-5-5--3-3--3-3-3-3-3--3-3-3-3-|
A|-------------------------------------------------------------------------|
E|-------------------------------------------------------------------------|

G|----5-5--5-5-5-5-5--5-5-5-5----------------------------------------------|
D|-------------------------------------------------------------------------|(X2)
A|-------------------------------------------------------------------------|
E|-------------------------------------------------------------------------|


[Outro]

G|------------5-5-5-9-7\5--------5h7----------5-5-5-9-7\5-------5h7--------|
D|---3-3-3-3--------------5-5-5-------3-3-3-3-------------5-5-5------------|
A|-------------------------------------------------------------------------|
E|-------------------------------------------------------------------------|

G|-----------5-5-5-9-7\5--------5h7----------5-5-5-5-----------------------|
D|--3-3-3-3--------------5-5-5-------3-3-3-3-------------------------------|
A|-------------------------------------------------------------------------|
E|-------------------------------------------------------------------------|
            
Submit corrections


        Borrowed Time lessons Hard to play? Try these video lessons and learn fast Borrowed Time lessons
        
↑ Back to top | Tablatures and chords for acoustic guitar and electric guitar, ukulele, drums are parodies/interpretations of the original songs. You may use it for private study, scholarship, research or language learning purposes only