Home » P » Paramore »

Paramore - Tell Me How Tabs

Artists:  A B C D E F G H I J K L M N O P Q R S T U V W X Y Z # 

Tell Me How Tabs

(ver. 1) Click to play this song!
Paramore
[Intro]

       BbM7    C
       BbM7    Am7
       F     Am7
       F
Verse:
          C                 BbM7
I can't call you a stranger
              C          BbM7
But I can't call you
               Am7               F
I know you think that I erased you
            Am7                 F
You may hate me but I can't hate you
                    C
And I won't replace you

Chorus
BbM7                              C
Tell me how to feel about you now
BbM7
Tell me how to feel about you now
 Am7    F
 Oh,     let me know
 Am7                    F    
Do I suffocate or let go?


[Verse2]
                              BbM7
Think I'm tired of getting over it
       C                  BbM7
Just starting something new again
             Am7          F
I'm getting sick of the beginnings
    Am7     F
And always coming to your defences
              C                     BbM7
I guess it's good to get it off my chest
             C              BbM7
I guess I can't believe I haven't yet
 Am7                       F
You know I got my own convictions
Am7                          F
And they're stronger than any addiction
     ( C)
But no one's winning

Taylor
Add Delay , Reverb
e|--10------8------10-------------8-------------8-------8--------------------|
B|--10------8------10------8------10-----10-----10------8--------------------|
G|--10------9------10------9------10-----9------10------9--------------------|
D|-------------------------10------------10----------------------------------|
A|---------------------------------------------------------------------------|
E|---------------------------------------------------------------------------|


e|--10------8------10-------------8-------------8-------------8---------8----|
B|--10------8------10------8------10-----10-----10--------10--------10-------|
G|--10------9------10------9------10-----9------10-----12--------12----------|
D|-------------------------10------------10----------------------------------|
A|---------------------------------------------------------------------------|
E|---------------------------------------------------------------------------|

[Chorus2]
BbM7                             C
Tell me how to feel about you now
BbM7
Tell me how to feel about you now
 Am7    F
 Oh,     let me know
 Am7                    F    (C)
Do I suffocate or let go?

Taylor - palm muted -do this 2 times
e|-------5-5-----5---|-------5-5-----5----|-------5-5-----5---|-------5-5-----5----|
B|-6-6-6-----6-6---6-|-6-6-6-----6-6---6--|-6-6-6-----6-6---6-|-6-6-6-----6-6---6--|
G|-------------------|--------------------|-------------------|--------------------|
D|-------------------|--------------------|-------------------|--------------------|
A|-------------------|--------------------|-------------------|--------------------|
E|-------------------|--------------------|-------------------|--------------------|

e|-------------------|--------------------|-------------------|--------------------|
B|-------5-5-----6---|-------6-6-----6----|-------5-5-----6---|-------6-6-----6-5--|
G|-5-5-5-----5-5---5-|-5-5-5-----5-5---5--|-5-5-5-----5-5---5-|-5-5-5-----5-5------|
D|-------------------|--------------------|-------------------|--------------------|
A|-------------------|--------------------|-------------------|--------------------|
E|-------------------|--------------------|-------------------|--------------------|



Interlude:  Gm Dm-C  Am 2x

[keys]
e|--5-------------------------------|---5-------------------------------------|
B|-----6--8---------6--5------------|------6--8---------6--5--6---3-----------|
G|-----------7----5-------7--5--3---|------------7---5---------------3--------|
D|----------------------------------|-----------------------------------------|
A|----------------------------------|-----------------------------------------|
E|----------------------------------|-----------------------------------------|

                            Gm
You keep me up with your silence
Dm                       C
Take me down with your quiet
  Am                      Gm
Of all the weapons you fight with
    Dm                     C
Your silence is the most violent

(DO Chorus 2x)
e|-------------------|--------------------|-------------------|--------------------|
B|-------------------|--------------------|-------------------|--------------------|
G|-------------------|--------------------|-------------------|--------------------|
D|-------------------|--------------------|-------------------|--------------------|
A|-------------------|--------------------|-------------------|--------------------|
E|-------------------|--------------------|-------------------|--------------------|

e|-------------------|--------------------|-------------------|--------------------|
B|-------5-5-----6---|-------6-6-----6----|-------5-5-----6---|-------6-6-----6-5--|
G|-5-5-5-----5-5---5-|-5-5-5-----5-5---5--|-5-5-5-----5-5---5-|-5-5-5-----5-5------|
D|-------------------|--------------------|-------------------|--------------------|
A|-------------------|--------------------|-------------------|--------------------|
E|-------------------|--------------------|-------------------|--------------------|

e|-------5-5-----5---|-------5-5-----5----|-------5-5-----5---|-------5-5-----5----|
B|-6-6-6-----6-6---6-|-6-6-6-----6-6---6--|-6-6-6-----6-6---6-|-6-6-6-----6-6---6--|
G|-------------------|--------------------|-------------------|--------------------|
D|-------------------|--------------------|-------------------|--------------------|
A|-------------------|--------------------|-------------------|--------------------|
E|-------------------|--------------------|-------------------|--------------------|

e|-------------------|--------------------|-------------------|--------------------|
B|-------5-5-----6---|-------6-6-----6----|-------5-5-----6---|-------6-6-----6-5--|
G|-5-5-5-----5-5---5-|-5-5-5-----5-5---5--|-5-5-5-----5-5---5-|-5-5-5-----5-5------|
D|-------------------|--------------------|-------------------|--------------------|
A|-------------------|--------------------|-------------------|--------------------|
E|-------------------|--------------------|-------------------|--------------------|


Outro:
BbM7    C
       BbM7    Am7
       F     Am7
       F     C

e|-------5-5-----5---|-------5-5-----5----|-------5-5-----5---|-------5-5-----5----|
B|-6-6-6-----6-6---6-|-6-6-6-----6-6---6--|-6-6-6-----6-6---6-|-6-6-6-----6-6---6--|
G|-------------------|--------------------|-------------------|--------------------|
D|-------------------|--------------------|-------------------|--------------------|
A|-------------------|--------------------|-------------------|--------------------|
E|-------------------|--------------------|-------------------|--------------------|

e|-------------------|--------------------|-------------------|--------------------|
B|-------5-5-----6---|-------6-6-----6----|-------5-5-----6---|-------6-6-----6-5--|
G|-5-5-5-----5-5---5-|-5-5-5-----5-5---5--|-5-5-5-----5-5---5-|-5-5-5-----5-5------|
D|-------------------|--------------------|-------------------|--------------------|
A|-------------------|--------------------|-------------------|--------------------|
E|-------------------|--------------------|-------------------|--------------------|

e|-------5-5-----5---|-------5-5-----8-6--|-------5-5-----5---|-------5-5-----5----|
B|-6-6-6-----6-6---6-|-6-6-6-----6-6------|-6-6-6-----6-6---6-|-6-6-6-----6-6---6--|
G|-------------------|--------------------|-------------------|--------------------|
D|-------------------|--------------------|-------------------|--------------------|
A|-------------------|--------------------|-------------------|--------------------|
E|-------------------|--------------------|-------------------|--------------------|
                                                                                increase feedback repeats
e|-------------------|--------------------|-------------------|--------------------|
B|-------5-5-----6---|-------6-6-----6----|-------5-5-----6---|-------6-6-----6-5--|
G|-5-5-5-----5-5---5-|-5-5-5-----5-5---5--|-5-5-5-----5-5---5-|-5-5-5-----5-5------|
D|-------------------|--------------------|-------------------|--------------------|
A|-------------------|--------------------|-------------------|--------------------|
E|-------------------|--------------------|-------------------|--------------------|            
Submit corrections

↑ Back to top | Tablatures and chords for acoustic guitar and electric guitar, ukulele, drums are parodies/interpretations of the original songs. You may use it for private study, scholarship, research or language learning purposes only