Home » P » Paramore »

Paramore - Still Into You Acoustic Live Tabs

Artists:  A B C D E F G H I J K L M N O P Q R S T U V W X Y Z # 

Still Into You Acoustic Live Tabs

(ver. 1) Click to play this song!
Paramore
[Intro] & [Verses]

e|----------------------------------------------------------------------------------|
B|--10--10--10--8-------------10--10--8---------------------------------------------|
G|-----------------10--9-----------------10--9------9----REPEAT---------------------|
D|------------------------10--------------------10----------------------------------|
A|----------------------------------------------------------------------------------|
D|----------------------------------------------------------------------------------|

[Pre Chorus]
e|--x--------x--------x--------x----------------------------------------------------|
B|--x--------x--------x--------6----------------------------------------------------|
G|--3--(8x)--5--(8x)--x--(4x)--5--(11x)---------------------------------------------|
D|--x--------x--------3--------3----------------------------------------------------|
A|--1--------3--------3--------3----------------------------------------------------|
D|--x--------x--------3--------3----------------------------------------------------|


[Chorus]

e|--x---------x---------x-----------------x---------x-------------------------------|
B|--11--------13--------6-----------------11--------13------------------------------|
G|--10--(8x)--12--(8x)--5--(16x)--((x2))--10--(8x)--12--(8x)------------------------|
D|--8---------10--------3-----------------8---------10------------------------------|
A|--8---------10--------3-----------------8---------10------------------------------|
D|--8---------10--------3-----------------8---------10------------------------------|

e|--x---------x--------x---------x--------------------------------------------------|
B|--15--------6--------11--------13-------------------------------------------------|
G|--14--(8x)--5--(8x)--10--(8x)--12--Then Back to Intro and Verse ------------------|
D|--12--------3--------8---------10-------------------------------------------------|
A|--12--------3--------8---------10-------------------------------------------------|
D|--12--------3--------8---------10-------------------------------------------------|


[Bridge] 
e|----------------------------------------------------------------------------------------------------|
B|-----------6--5--5-------------------------------5--6--8--8--8--8--8--8--8--8-----------------------|
G|-------------------5--5--(2x)--7--7--7--7--7--7--------------------------------(4x)--Repeat Section |
D|--3--3--3-------------------------------------------------------------------------Then back to------|
A|-------------------------------------------------------------------------------------Pre Chorus-----|
D|----------------------------------------------------------------------------------------------------|

[Outro]
e|--x---------x----------------------------------------------------------------------|
B|--11--------13---------------------------------------------------------------------|
G|--10--(8x)--12---(8x)--((3x))------------------------------------------------------|
D|--8---------10---------------------------------------------------------------------|
A|--8---------10---------------------------------------------------------------------|
D|--8---------10---------------------------------------------------------------------|            
Submit corrections

↑ Back to top | Tablatures and chords for acoustic guitar and electric guitar, ukulele, drums are parodies/interpretations of the original songs. You may use it for private study, scholarship, research or language learning purposes only