Home » P » Paramore »

Paramore - Oh Star Bass

Artists:  A B C D E F G H I J K L M N O P Q R S T U V W X Y Z # 

Oh Star Bass

(ver. 1) Click to play this song!
Paramore
-------------------------------------------------------------------------------
			     Oh Star - Paramore
-------------------------------------------------------------------------------

Tuning: standard

intro verse

"hold on let me think"
G|-------------------------------------------|
D|--------------------------------2----------|
A|----3-3--33-3-------------3-3--3--3p2------|
E|12\----------3--55--55-5p3-----------3-5-5-|

pre-chorus "wait...don't go away"
G|-------------------------|    |----------------|
D|-------------------------|    |----------------|
A|-----------------3~---3-5|    |----------------|
E|1-11-11~--1/5\1----------|x3  |1-11-11~--1/5\1-|

chorus "I won't let you fall away from me"
G|------------------------------------|
D|-------------------------------220--|
A|-----------------3333333333333----3-|
E|555555555555555p3-------------------|

"you will never fade"
G|-----------------------------------------------------|
D|-------------2h3p2-------------2h3p2-----------------|
A|------------3-----3-----------3----------------------|
E|111111111111-------11111111111------1111111111111/3~-|

straight into pre-verse
G|--------------------------|
D|--------------------------|
A|3-3~--33------------------|
E|---------5p3-5-5~--55-5p3-|

straight into
verse "and i'll let my dream consume me"
G|------------------------|
D|------------------------|
A|3-3~--33----------------|
E|--------5p3-5-5--55-5p3-|x3

"but hold on, hold on"
G|------------------4h5p4----|  |-----------------------------|
D|-------2---------------5-2-|  |-------2---------------------|
A|3-3~-3---32----------------|  |3-3--3---32------------------|
E|------------3-5-5~---------|  |-----------3-555555555555555-|

pre-chorus "wait...don't go away"
G|-------------------------|    |----------------|
D|-------------------------|    |----------------|
A|-----------------3~---3-5|    |----------------|
E|1-11-11~--1/5\1----------|x3  |1-11-11~--1/5\1-|

chorus "I won't let you fall away from me"
G|------------------------------------|
D|-------------------------------220--|
A|-----------------3333333333333----3-|
E|555555555555555p3-------------------|

"you will never fade"
G|--------------------------------------------|
D|-------------2h3p2-------------2h3p2--------|
A|------------3-----3-----------3-------------|
E|111111111111-------11111111111-------5555-5-|

"I won't you fall away"
G|------------------------------------------------------|
D|-------------------------------2h3p2------------------|
A|-----------------------------3------------------------|
E|555555555555555p3-11111111111--------1111111111111/3~-|

after chorus
G|--------------------------|---------------------------------|
D|--------------------------|---------------------------------|
A|3-3~--33------------------|3-3~--33--------------------3333-|
E|---------5p3-5-5~--55-5p3-|--------5p3-11111-3333-5555------|

last chorus
G|------------------------------------------------------------|
D|--------------------------------2-0------------------2h3p2--|
A|------------------33333333333-3-----3p2------------3------3-|
E|555555555555555p3-----------------------11111111111---------|

G|-------------------------------------------------------------------------|
D|--------------------------------2-0------------------2h3p2---------------|
A|------------------33333333333-3-----3p2------------3------3--------------|
E|555555555555555p3-----------------------11111111111---------1111111111-3-|

outro
G|------------------7/9-7-------------|    |------|
D|---------7-10-7-7--------10-9-7-----|    |------|
A|----7-10-----------------------10-7-|    |------|
E|8-8---------------------------------|x2  |-1~---|

| /  slide up
| \  slide down
| h  hammer-on
| p  pull-off
| ~  vibrato
| +  harmonic
| x  Mute note
===============================================================================
            
Submit corrections

↑ Back to top | Tablatures and chords for acoustic guitar and electric guitar, ukulele, drums are parodies/interpretations of the original songs. You may use it for private study, scholarship, research or language learning purposes only