» » »

Paramore - Monster Bass

Artists:  A B C D E F G H I J K L M N O P Q R S T U V W X Y Z # 

Monster Bass

(ver. 2) Click to play this song!
Paramore
 Rating:
4/5 (4 votes)


 Monster lessons Tabs too difficult? Try these video lessons and learn fast
 
                -------------------------------------------------------------------------------
			     MONSTER - Paramore
-------------------------------------------------------------------------------


Tuning: Drop C# with  a C instead of C#

I'm not too sure about the tuning, but as most Paramore songs are Drop C#,
sure. 

Verse 0:11
You were my conscience...
Gb|-------------------------------|
Db|-------------------------------|
Ab|------------------4-44-6-66--8-|
C|--9-7--9-11-4--4~---------------|

Gb|----------------------------|
Db|----------------------------|
Ab|------------------4-44-66-6-|
C|--9-7--9-11-4--4~------------|

Gb|-----------------------------|
Db|-----------------------------|
Ab|-------------------4-44-6-66-|
C|--9-7--9-11-4--4~-------------|


Prechorus 0:34
Gb|------------|
Db|------------|
Ab|------------|
C|--4-4--4-4-4-|


Chorus 0:38
I'll stop the whole world...
Gb|----------------------------------------------|
Db|----------------------------------------------|
Ab|----------------------------------------------|
C|--0-00-0-00-00-0--44-4-44-4-44-44-22-2-22-22-2-|2x

Gb|-----------------------------------------|
Db|-----------------------------------------|
Ab|-----------------------------------------|
C|--0-00-0-00-00-0-77-77-77-7\2222222222222-|

Gb|--------------------|
Db|--------------------|
Ab|--------------------|
C|--000000000000000-2~-|

After chorus 0:58
Aha, ahah...
Gb|-----------------------------|
Db|-----------------------------|
Ab|-------------------4-4-66-6--|
C|--9-7--9-11-4--4~-------------|

Gb|-----------------------------|
Db|-----------------------------|
Ab|-------------------4-44-6-66-|
C|--9-7--9-11-4--4~-------------|

Verse 1:10
I'm only human...
Gb|----------------------------|
Db|----------------------------|
Ab|------------------4-44-6-66-|
C|--9-7--9-11-4--4~------------|

Gb|------------------------------------------------|
Db|-------------------------------10-8-6-6--8-10---|
Ab|-------------------4-44-6-66-8---------------8\-|
C|--9-7--9-11-4--4~--------------------------------|

Gb|-----------|
Db|-----------|
Ab|-4-44-6-66-|
C|------------|

Gb|-------------------------|
Db|-------------------------|
Ab|---------------4-44-6-66-|
C|--9-7--9-11-4~------------|

Prechorus 1:33
Calling...
Gb|------------|
Db|------------|
Ab|------------|
C|--4-4--4-4-4-|

Chorus 1:36
I'll stop the whole world...
Gb|----------------------------------------------|
Db|----------------------------------------------|
Ab|----------------------------------------------|
C|--0-00-0-00-00-0--44-4-44-4-44-44-22-2-22-22-2-|

Gb|-------------------------------------------------------|
Db|-------------------------------------------------------|
Ab|-------------------------------------------------------|
C|--12-1212-12-1212-1212-12--44-4-44-44-4-44-2-22-22-2-22-|

Gb|-----------------------------------------|
Db|-----------------------------------------|
Ab|-----------------------------------------|
C|--0-00-0-00-00-0-77-77-77-7\2222222222222-|

Gb|----------------------------|
Db|----------------------------|
Ab|----------------------------|
C|--000000000000000-2222222222-|


Bridge 1:56
... ours...
Gb|-----------------------------------|
Db|-----------------------------------|
Ab|-----------------------------------|
C|--4-4-4-7---2-2-2-6-00-000-00-0-000-|2x

2:07 
Well, you thought of a straight big solution...
Gb|--------------------------------------------------|
Db|--------------------------------------------------|
Ab|-111111111111111-33333333333-444444444444---------|
C|--------------------------------------------77--22-|

Gb|-----------------------------------------|
Db|-----------------------------------------|
Ab|-111111111111111-3333333333-444444444444-|
C|------------------------------------------|

Gb|------------------------------|
Db|------------------------------|
Ab|-444444444444444-666666666666-|
C|-------------------------------|

Prechorus 2:22
Gb|------------|
Db|------------|
Ab|------------|
C|--4-4--4-4-4-|

Gb|---------------|
Db|---------------|
Ab|---------------|
C|--4-4--4-4-4-7\-|

Chorus 2:29
I'll stop the whole world...
Gb|----------------------------------------------|
Db|----------------------------------------------|
Ab|----------------------------------------------|
C|--0-00-0-00-00-0--44-4-44-4-44-44-22-2-22-22-2-|

Gb|-------------------------------------------------------|
Db|-------------------------------------------------------|
Ab|-------------------------------------------------------|
C|--12-1212-12-1212-1212-12--44-4-44-44-4-44-2-22-22-2-22-|

Gb|-----------------------------------------|
Db|-----------------------------------------|
Ab|-----------------------------------------|
C|--0-00-0-00-00-0-77-77-77-7\2222222222222-|

Gb|----------------------------|
Db|----------------------------|
Ab|----------------------------|
C|--000000000000000-2222222222-|

2:48
Gb|---------------------------------------------|
Db|---------------------------------------------|
Ab|---------------------------------------------|
C|--0000000000000000-444444444444-2222222222222-|

Gb|-----------------------------------------|
Db|-----------------------------------------|
Ab|-4444444444444444134-8888888866666666464-|
C|------------------------------------------|
11's
Gb|--------------------------------------------|
Db|--------------------------------------------|
Ab|-4444444444444444-1111111111111111666666666-|
C|---------------------------------------------|

Gb|--------------------|
Db|--------------------|
Ab|-444444444444444-6~-|
C|---------------------|


| /  slide up
| \  slide down
| h  hammer-on
| p  pull-off
| ~  vibrato
| +  harmonic
| x  Mute note
===============================================================================
            
Submit corrections



        Monster lessons Hard to play? Try these video lessons and learn fast Monster lessons
        
↑ Back to top | Tablatures and chords for acoustic guitar and electric guitar, ukulele, drums are parodies/interpretations of the original songs. You may use it for private study, scholarship, research or language learning purposes only